» » »

Promise Ring - How Nothing Feels Tabs

Artists:  A B C D E F G H I J K L M N O P Q R S T U V W X Y Z # 

How Nothing Feels Tabs

(ver. 1) Click to play this song!
Promise Ring
 Rating:
4/5 (4 votes)

 How Nothing Feels lessons Tabs too difficult? Try these video lessons and learn fast
 
                -----------------------------------------------------------------------------
                             HOW NOTHING FEELS - The Promise Ring
-----------------------------------------------------------------------------
So this is pretty basic, its just a simple melody over the same chords of Nothing Feels 
Good. The melody is on a piano (and I think the right hand plays the chords softly as 
well) and the chords are played on an acoustic.

Tuning: Standard
                                      x2
e|-7-8-|-------------12-10----------7-8-|-------------8--7------------14--|
B|-----|-10-----------------------------|-10------------------------------|
G|-----|--------------------------------|---------------------------------|
D|-----|--------------------------------|---------------------------------|
A|-----|--------------------------------|---------------------------------|
E|-----|--------------------------------|---------------------------------|
 |                                                                        |
e|-----|--------------------------------|---------------------------------|
B|-----|--------------------------------|---------------------------------|
G|-4-4-|-2---2---2---2-2-4---4---4---4-4|-2---2---2---2-2-4---4---4---4-4-|
D|-5-5-|-3---3---3---3-3-5---5---5---5-5|-3---3---3---3-3-5---5---5---5-5-|
A|-5-5-|-3---3---3---3-3-5---5---5---5-5|-3---3---3---3-3-5---5---5---5-5-|
E|-3-3-|-1---1---1---1-1-3---3---3---3-3|-1---1---1---1-1-3---3---3---3-3-|


e|-15-----------------------------|-----(7)(8)---8--7-----------7-8-|
B|--------------------------------|-10------------------------------|
G|--------------------------------|---------------------------------|Fade...
D|--------------------------------|---------------------------------|
A|--------------------------------|---------------------------------|
E|--------------------------------|---------------------------------|
 |                                    *(ghost notes, not harmonics) |
 |                                                                  |
e|--------------------------------|---------------------------------|
B|--------------------------------|---------------------------------|
G|-2---2---2---2-2-4---4---4---4-4|-2---2---2---2-2-4---4---4---4-4-|
D|-3---3---3---3-3-5---5---5---5-5|-3---3---3---3-3-5---5---5---5-5-|
A|-3---3---3---3-3-5---5---5---5-5|-3---3---3---3-3-5---5---5---5-5-|
E|-1---1---1---1-1-3---3---3---3-3|-1---1---1---1-1-3---3---3---3-3-|
            
Submit corrections


        How Nothing Feels lessons Hard to play? Try these video lessons and learn fast How Nothing Feels lessons
        
↑ Back to top | Tablatures and chords for acoustic guitar and electric guitar, ukulele, drums are parodies/interpretations of the original songs. You may use it for private study, scholarship, research or language learning purposes only