» » »

Promise Ring - Anne You Will Sing Tabs

Artists:  A B C D E F G H I J K L M N O P Q R S T U V W X Y Z # 

Anne You Will Sing Tabs

(ver. 1) Click to play this song!
Promise Ring
 Rating:
4/5 (4 votes)

 Anne You Will Sing lessons Tabs too difficult? Try these video lessons and learn fast
 
                -----------------------------------------------------------------------------
                           ANNE YOU WILL SING - The Promise Ring
-----------------------------------------------------------------------------
Well this is my favorite song by TPR so I thought I'd try to tab it out. 

Tuning: Standard


Beginning:
e|---------------------------|
B|-4------------4------------|
G|-----4-------------4-------|
D|---------------------------|
A|---------------------------|
E|---------------------------|

Intro/Verse:
e|------------------------------------------------------------------------|
B|------------------------------------------------------------------------|
G|-9-99-99-99-99-99-8-89-911-119-99-99-8-88-88-88-88-888-88-88-88-88-88---|
D|-9-99-99-99-99-99-9-99-9-9-9-9-99-99-x-xx-xx-xx-xx-xxx-xx-xx-xx-xx-xx---|
A|-7-77-77-77-77-77-6-66-6-6-6-6-66-66-6-66-66-66-66-666-66-66-66-66-66---|
E|-------------------------------------4-44-44-44-44-445-55-55-55-55-55---|
 |                                                                        |
e|------------------------------------------------------------------------|
B|------------------------------------------------------------------------|
G|-9-99-99-99-99-998-88-88-88-88-8813-1313-1313-1313-1313-1311111111111111|
D|-9-99-99-99-99-999-99-99-99-99-99x--x-x--x-x--x-x--x-x--x-x-xx-xx-xx-xx-|
A|-7-77-77-77-77-776-66-66-66-66-6611-1111-1111-1111-1111-119-99-99-99-99-|
E|------------------------------------------------------------------------|

Bridge:           x1                 x3
e|------------------|------------------|
B|------------------|------------------|
G|-888-9999-99-9999-|-888-9999-99-9999-|
D|-xxx-777x-xx-xxxx-|-xxx-777x-xx-xxxx-|
A|-666-0007-77-7777-|-666-0007-77-7777-|
E|--------0-00-0000-|--------0-00-0000-|
 |                                     |
e|------------------|------------------|
B|------------------|------------------|
G|------------------|-444-222----------|
D|--------2-22-2222-|-444-2222-22-2222-|
A|--------2-22-2222-|-222-0002-22-2222-|
E|--------0-00-0000-|--------0-00-0000-|

Interlude:
G|---------------------------------------------------------|
D|---------------------------------------------------------|BASS
A|---0-4----0-4----0-4----0-4----0-7----0-7----0-7----0-7--|
E|-0------0------0------0------0------0------0------0------|
 |                                                         |
e|--------------------------------------------------7------|
B|-----------------------------------------------9---------|GTR I
G|---------------------------------9-----------------------|
D|---------------------------------------------------------|
A|-----7---------------------------7-----------------------|
E|-0-0-0-----------------------0-0-------------------------|
 |                                                         |
e|---------------------------------------------------------|
B|---------------------------------------------------------|GTR II
G|---------------------------------------------------------|
D|---------------------------------------------------------|
A|-----4---------------------------7----------------7/9-9--|
E|-0-0-0-----------------------0-0-0----------------0---0--|


G|---------------------------------------------------------|
D|---------------------------------------------------------|BASS
A|---0-4----0-4----0-4----0-4----0-7----0-7----0-7----0-7--|
E|-0------0------0------0------0------0------0------0------|
 |                                                         |
e|-------------------7-------------------------------------|
B|-----9--------------------9------------------------------|GTR I
G|------------6--------------------6------6/4---4/6--------|
D|---------------------------------------------------------|
A|---------------------------------------------------------|
E|---------------------------------------------------------|
 |                                                         |
e|---------------------------------------------------------|
B|---------------------------------------------------------|GTR II
G|---------------------------------------------------------|
D|---------------------------------------------------------|
A|-----4---------------------------7----------------7/9-9--|
E|-0-0-0-----------------------0-0-0----------------0---0--|

Interlude cont.:                              x4
e|----------------------------------------------|
B|-9-9-9--9-9--9-9--9-9--9-9-9--9-9--9-9---9-9--|
G|-9-9-9--9-9--9-9--9-9--9-9-9--9-9--9-9---9-9--|
D|----------------------------------------------|
A|-7-7-7--7-7--7-7--7-7--7-7-7--7-7--7-7---7-7--|
E|----------------------------------------------|
 |                                              |
e|----------------------------------------------|
B|----------------------------------------------|
G|-----6--6-6--6-6--6-6------9--9-9--9-9--9/1111|
D|----------------------------------------------|
A|-----4--4-4--4-4--4-4------7--7-7--7-7--7/9-9-|
E|-0-0-0--0-0--0-0--0-0--0-0-0--0-0--0-0--0---0-|

Break:
e|-----------------------------------------------------------7----|
B|-------------------------------------------------------9-9---9--|
G|---------------------------------------------------9-9----------|
D|----------------------------------------------------------------|
A|-x---x---x---x---x---x---x---x---x---x---x---x---x--------------|
E|-9-9-9-9-9-9-9-9-9-9-9-9-9-9-9-9-9-9-9-9-9-9-9-9-9--------------|
 | pm. . . . . . . . . . . . . . . . . . . . . . . .              |
 |                                                                |
e|----------------------------------------------------------------|
B|----------------------------------------------------------------|
G|----------------------------------------------------------------|
D|-6-6-6-6-6-6-6-6-6-6-6-6-6-6-6-6-6-6-6-6-6-6-6-6-6-6-6-6-6-6-6--|
A|-4-4-4-4-4-4-4-4-4-4-4-4-4-4-4-4-4-4-4-4-4-4-4-4-4-4-4-4-4-4-4--|
E|----------------------------------------------------------------|
   pm. . . . . . . . . . . . . . . . . . . . . . . . .

Back to Interlude:                            x2
e|----------------------------------------------|
B|-9-9-9--9-9--9-9--9-9--9-9-9--9-9--9-9---9-9--|
G|-9-9-9--9-9--9-9--9-9--9-9-9--9-9--9-9---9-9--|
D|----------------------------------------------|
A|-7-7-7--7-7--7-7--7-7--7-7-7--7-7--7-7---7-7--|
E|----------------------------------------------|
 |                                              |
e|----------------------------------------------|
B|----------------------------------------------|
G|-----6--6-6--6-6--6-6------9--9-9--9-9--9/1111|
D|----------------------------------------------|
A|-----4--4-4--4-4--4-4------7--7-7--7-7--7/9-9-|
E|-0-0-0--0-0--0-0--0-0--0-0-0--0-0--0-0--0---0-|

Outro:
G|---------------------------------------------------------|
D|---------------------------------------------------------|BASS
A|---0-4----0-4----0-4----0-4----0-7----0-7----0-7----0-7--|
E|-0------0------0------0------0------0------0------0------|
 |                                                         |
e|---------------------------------------------------------|
B|----9----------------------------------------------------|GTR I
G|----9----------------------------6------6/4----------4/6-|
D|---------------------------------------------------------|
A|----7----------------------------------------------------|
E|---------------------------------------------------------|
 |                                                         |
e|---------------------------------------------------------|
B|---------------------------------------------------------|GTR II
G|-----6---------------------------9----------------9/1111-|
D|---------------------------------------------------------|
A|-----4---------------------------7----------------7/9-9--|
E|-0-0-0-----------------------0-0-0----------------0---0--|
            
Submit corrections


        Anne You Will Sing lessons Hard to play? Try these video lessons and learn fast Anne You Will Sing lessons
        
↑ Back to top | Tablatures and chords for acoustic guitar and electric guitar, ukulele, drums are parodies/interpretations of the original songs. You may use it for private study, scholarship, research or language learning purposes only