» » »

Primus - Lee Van Cleef Bass

Artists:  A B C D E F G H I J K L M N O P Q R S T U V W X Y Z # 

Lee Van Cleef Bass

(ver. 3) Click to play this song!
Primus
 Rating:
4/5 (4 votes)


 Lee Van Cleef lessons Tabs too difficult? Try these video lessons and learn fast
 
                -------------------------------------------------------------------------------
			     Lee Van Cleef - Primus
-------------------------------------------------------------------------------


I think it basically goes something like this, add some muted slaps & pops in between notes. 


    s  p  s  s  p  s  s  p  s  s  s  s  p  s  s  p  s  s  p  s  s s s s  
G|---------------------------------------------------------------------------|
D|-/5-(5)---/5-(5)---/5-(5)---/5----/5-(5)---/5-(5)---/5-(5)---/5------------|
A|--------5--------5--------5----/5--------5--------5--------5----5-4-3------|
E|---------------------------------------------------------------------------|


   s p s p s s s p s p s p s p     s p s p s s s p s p s p s p
G|---------------------------------------------------------------------------|
D|---x---x-------x---x---x---x-------x---x-------x---x---x---x---------------|
A|-----1-------------------------------1-------------------------------------|
E|-3-------3-1-3---x---x---x-------3-------3-1-3---x---x---x-----------------|


   s p s p s s s p s p s s s s  s  p  s  s  p  s  s  p  s  s  s
G|---------------------------------------------------------------------------|
D|---x-1-x-------x---x---------/5-(5)---/5-(5)---/5-(5)---/5-----------------|
A|-3-------3-1-3---x---3-5-4-3--------5--------5--------5----/5--------------|
E|---------------------------------------------------------------------------|

| s   Slap
| p   pop

| /   Slide up
| x   Mute
| (5) Muted note
            
Submit corrections



        Lee Van Cleef lessons Hard to play? Try these video lessons and learn fast Lee Van Cleef lessons
        
↑ Back to top | Tablatures and chords for acoustic guitar and electric guitar, ukulele, drums are parodies/interpretations of the original songs. You may use it for private study, scholarship, research or language learning purposes only