Home » P » Primal Scream »

Primal Scream - Sweet Pretty Thing Tabs

Artists:  A B C D E F G H I J K L M N O P Q R S T U V W X Y Z # 

Sweet Pretty Thing Tabs

(ver. 1) Click to play this song!
Primal Scream
intro
0:00
E|-------------------------------------------------------------------------------------------------------|
B|-7----7----7--------5(5)---------------------------------(5)/------------------------------------------|
G|-9b11-9b11-9b11r9/7-4(4)---------------------------------(4)/------------------------------------------|
D|-------------------------------------------------------------vvvvvvvvvvv-------------------------------|
A|-------------------------------------------------------------vvvvvvvvvvv-------------------------------|
E|-------------------------------------------------------------vvvvvvvvvvv-------------------------------|
                                                 pick scr*pe:  ...........        


-------------
first verse
0:05
E|-------------------------------------------------------------------------------------------------------|
B|-------------------------------------------------------------------------------------------------------|
G|-------------------2----------4------4(4)------------4----4------4-----4-------------------------------|
D|-4--------4--------2----2/4-----2----4(4)------------4----4--2/4---2h4---------------------------------|
A|-2--------2--------0-----------------2(2)------------2----2--------------------------------------------|
E|-------------------------------------------------------------------------------------------------------|

E|-------------------------------------------------------------------------------------------------------|
B|-------------------------------------------------------------------------------------------------------|
G|-------------------4---------4------------------------h4--4--4--4--------------------------------------|
D|-4--------4----2/4---4-4-4---4--------4(4)-----------(4)--4--4--4--------------------------------------|
A|-2--------2----------2-2-2------------2(2)-----------(2)--2--2--2--------------------------------------|
E|-------------------------------------------------------------------------------------------------------|
                 PM:   .....


-------------
first pre-chorus
0:20
E|-------------------------------------------------------------------------------------------------------|
B|-5-----------------7------------------3-----------10---------------------------------------------------|
G|-7b9---------------9b11---------------5b7---------12b14------------------------------------------------|
D|-------------------------------------------------------------------------------------------------------|
A|-------------------------------------------------------------------------------------------------------|
E|-------------------------------------------------------------------------------------------------------|

E|-------------------------------------------------------------------------------------------------------|
B|-------------------------------------------------------------------------------------------------------|
G|-2-----------------4(4)--------------------------------------------------------------------------------|
D|-2--------2--------4(4)--------------------------------------------------------------------------------|
A|-0--------2--------2(2)--------------------------------------------------------------------------------|
E|----------0--------------------------------------------------------------------------------------------|


-------------
first chorus
0:30
E|-------------------------------------------------------------------------------------------------------|
B|--------------------------------------------5-7-7b9r7-5------------------------------------------------|
G|-4(4)----------------------------------------------------2(2)----------4(4)----------------------------|
D|-2(2)------------------------4(4)------------------------2(2)----------4(4)----------------------------|
A|-----------------------------2(2)------------------------0(0)----------2(2)----------------------------|
E|-------------------------------------------------------------------------------------------------------|

E|---------------------------2----------------------------------2----------------------------------------|
B|---------------------------3----------------------------------3----------------------------------------|
G|------------------2--------2-------------------------2--------2----------------------------------------|
D|-2(2)-------------2-----------------2(2)-------------2-------------------------------------------------|
A|-2(2)-------------0-----------------2(2)-------------0-------------------------------------------------|
E|-0(0)-------------------------------0(0)---------------------------------------------------------------|


-------------
second verse
0:47
E|-------------------------------------------------------------------------------------------------------|
B|-------------------------------------------------------------------------------------------------------|
G|-------------------2----------4------4(4)-------4----4----4------4-----4-------------------------------|
D|-4--------4--------2----2/4-----2----4(4)-------4----4----4--2/4---2h4---------------------------------|
A|-2--------2--------0-----------------2(2)-------4----2----2--------------------------------------------|
E|-------------------------------------------------------------------------------------------------------|

E|-------------------------------------------------------------------------------------------------------|
B|-------------------------------------------------------------------------------------------------------|
G|-------------------4---------4------------------------h4--4--4--4--------------------------------------|
D|-4--------4----2/4---4-4-4---4--------4(4)-----------(4)--4--4--4--------------------------------------|
A|-2--------2----------2-2-2------------2(2)-----------(2)--2--2--2--------------------------------------|
E|-------------------------------------------------------------------------------------------------------|
                 PM:   .....


-------------
second pre-chorus
1:02
E|-------------------------------------------------------------------------------------------------------|
B|-5-----------------7------------------3-----------10---------------------------------------------------|
G|-7b9---------------9b11---------------5b7---------12b14------------------------------------------------|
D|-------------------------------------------------------------------------------------------------------|
A|-------------------------------------------------------------------------------------------------------|
E|-------------------------------------------------------------------------------------------------------|

E|-------------------------------------------------------------------------------------------------------|
B|-------------------------------------------------------------------------------------------------------|
G|-2-----------------4(4)--------------------------------------------------------------------------------|
D|-2--------2--------4(4)--------------------------------------------------------------------------------|
A|-0--------2--------2(2)--------------------------------------------------------------------------------|
E|----------0--------------------------------------------------------------------------------------------|


-------------
second chorus
1:13
E|-------------------------------------------------------------------------------------------------------|
B|--------------------------------------------5-7-7b9r7-5------------------------------------------------|
G|-4(4)----------------------------------------------------2(2)----------4(4)----------------------------|
D|-2(2)------------------------4(4)------------------------2(2)----------4(4)----------------------------|
A|-----------------------------2(2)------------------------0(0)----------2(2)----------------------------|
E|-------------------------------------------------------------------------------------------------------|

E|---------------------------2----------------------------------2----------------------------------------|
B|---------------------------3----------------------------------3----------------------------------------|
G|------------------2--------2-------------------------2--------2----------------------------------------|
D|-2(2)-------------2-----------------2(2)-------------2-------------------------------------------------|
A|-2(2)-------------0-----------------2(2)-------------0-------------------------------------------------|
E|-0(0)-------------------------------0(0)---------------------------------------------------------------|


-------------
interlude
01:30

E|-------------------------------------------------------------------------------------------------------|
B|-------------------------------------------------------------------------------------------------------|
G|-2----------2---2------------2----------2---2-----------2----------2---2------------2----------2---2---|
D|-2----------2---2------------2----------2---2-----------0---0------0---0------------0---0------0---0---|
A|-----0--------------------------0----------------------------------------------------------------------|
E|-------------------------------------------------------------------------------------------------------|

E|-------------------------------------------------------------------------------------------------------|
B|-------------------------------------------------------------------------------------------------------|
G|-2----------2---2------------2----------2---2----------------------------------------------------------|
D|-2----------2---2------------2----------2---2----------------------------------------------------------|
A|-----0--------------------------0----------------------------------------------------------------------|
E|-------------------------------------------------------------------------------------------------------|


-------------
solo
01:41

E|--------------------------------------------------------------------------------------------------------|
B|-3b-0------0-3-3b---0------0-3-3b---0------3-5-5b6---5b6---5b6r5-3-5------------------------------------|
G|--------------------------------------------------------------------------------------------------------|
D|--------------------------------------------------------------------------------------------------------|
A|--------------------------------------------------------------------------------------------------------|
E|--------------------------------------------------------------------------------------------------------|

E|-----------------------------------------------------5--------------------------------------------------|
B|-3b-0------0-3-3b---0------0-3-3b---0------3-5-5b6------5b6r5-3-5---------------------------------------|
G|--------------------------------------------------------------------------------------------------------|
D|--------------------------------------------------------------------------------------------------------|
A|--------------------------------------------------------------------------------------------------------|
E|--------------------------------------------------------------------------------------------------------|

E|--------------------------------------------------------------------------------------------------------|
B|-3b-0------0-3-3b---0------0-3-3b---0------3-5-5b6---5b6---5b6r5-3-5------------------------------------|
G|--------------------------------------------------------------------------------------------------------|
D|--------------------------------------------------------------------------------------------------------|
A|--------------------------------------------------------------------------------------------------------|
E|--------------------------------------------------------------------------------------------------------|

E|-----------------------------------------------5b6---5b6---5b6r5----------------------------------------|
B|-3b-0------0-3-3b---0------0-3-3b---0------3-5-------------------3-5-3~~~~~~~~~~------------------------|
G|--------------------------------------------------------------------------------------------------------|
D|--------------------------------------------------------------------------------------------------------|
A|--------------------------------------------------------------------------------------------------------|
E|--------------------------------------------------------------------------------------------------------|


2:12
E|--------------------------------------------------------------------------------------------------------|
B|-5-5-5b7------3-0-5-------------------------------------------------------------------------------------|
G|--------------------------------------------------------------------------------------------------------|
D|-------------------------vvvvvvvvvvv-7------------------------------------------------------------------|
A|-------------------------vvvvvvvvvvv0-------------------------------------------------------------------|
E|-------------------------vvvvvvvvvvv--------------------------------------------------------------------|
pick scr*pe (.) / PM (,):  ...........,,,  


            
Submit corrections

↑ Back to top | Tablatures and chords for acoustic guitar and electric guitar, ukulele, drums are parodies/interpretations of the original songs. You may use it for private study, scholarship, research or language learning purposes only