Home » P » Postal Service »

Postal Service - Nothing Better Tabs

Artists:  A B C D E F G H I J K L M N O P Q R S T U V W X Y Z # 

Nothing Better Tabs

(ver. 1) Click to play this song!
Postal Service
		      Nothing Better - The Postal Service

Tuning: Standard

/ = slide up
\ = slide down
() = natural harmonic

  Intro (0:00)
    D         G       D      A       G       Bm      A
E--------------------------------------------------------------------|
B--------------------------------------------------------------------|
G---2----------------------------------------------------------------|
D-----------0-5-------4----------------------------------------------|
A----------------------------4-------2-------5-------4-------0-------|
E--------------------------------------------------------------------|

  Verse (0:28)
E-----------------------------------------------------|
B--3--------------------------------------------------|
G--2---------------4------2-------------7------6------|
D--0-------5-------4------2------5------0------7------|
A----------5-------2------0------5-------------0------|
E----------3---------------------3------7-------------|

  Prechorus (0:56)
E----------3-------0---------------2-------3-------0-------|
B--3-------3-------2---------------3-------3-------2-------|
G--2-------0-------2---------------4-------0-------2-------|
D--0-------0-------2---------------4-------0-------2-------|
A----------2-------0---------------2-------2-------0-------|
E----------3--------------------2----------3---------------|

  Chorus (1:10)
E--2--2--3--3--0-------2---------------|
B--3--3--3--3--2-------3-------7-------|
G--4--4--0--0--2-------2-------7-------|
D--4--4--0--0--2-------0-------0-------|
A--2--2--2--2--0-----------------------|
E--------3--3------------------7-------|

E--2--2--3--3--0-------2---------------|
B--3--3--3--3--2-------2-------7-------|
G--4--4--0--0--2-------3-------7-------|
D--4--4--0--0--2-------4-------0-------|
A--2--2--2--2--0-------4---------------|
E--------3--3----------2-------7-------|

  Bridge (2:43)
   D          G    A              D         Bm
E----------------------------------------------------|
B---------------------(7)--(7)-----------------------|
G-----------7-6-------(7)--(7)-----------------------|
D--0--4--7-------4-7---------------------7-----------|
A---------------------------------7/9-------7\5------|
E----------------------------------------------------|

  Outro (3:11)
E----------3-------2---------------3---------------0------|
B--2-------3-------3---------------3---------------2------|
G--3-------0-------4---------------0---------------2------|
D--0-------0-------4---------------0-------4-------2------|
A----------2-------2---------------2-------5-------0------|
E----------3-----------------------3----------------------|
            
Submit corrections

↑ Back to top | Tablatures and chords for acoustic guitar and electric guitar, ukulele, drums are parodies/interpretations of the original songs. You may use it for private study, scholarship, research or language learning purposes only