» » »

Postal Service - Grow Old With Me Chords

Artists:  A B C D E F G H I J K L M N O P Q R S T U V W X Y Z # 

Grow Old With Me Chords

(ver. 1) Click to play this song!
Postal Service
 Rating:
4.3/5 (23 votes)

 Grow Old With Me lessons Tabs too difficult? Try these video lessons and learn fast
 
                [Verse 1]

Grow old along with me, the best is yet to be.

G|----------------|----------------|----------------|----------------|
D|-2--------------|----------------|----------------|----------------|
A|----------------|-3--------------|----------------|----------------|
D|----------------|----------------|-5--------------|-0--------------|

When our time has come, we will be as one.

G|----------------|----------------|----------------|----------------|
D|-2--------------|----------------|----------------|----------------|
A|----------------|-3--------------|----------------|----------------|
D|----------------|----------------|-5--------------|-0--------------|

God bless our love, god bless our love.

G|----------------|----------------|----------------|----------------|
D|--------0-------|--------2-------|----------------|----------------|
A|-3--------------|----------------|-3--------------|----------------|
D|----------------|-5--------------|---------0------|-5--------------|

[Verse 2]

Grow old along with me, two branches of one tree.

G|----------------|----------------|----------------|----------------|
D|-2--------------|----------------|----------------|----------------|
A|----------------|-3--------------|----------------|----------------|
D|----------------|----------------|-5--------------|-0--------------|

Face the setting sun, when the day is done

G|----------------|----------------|----------------|----------------|
D|-2--------------|----------------|----------------|----------------|
A|----------------|-3--------------|----------------|----------------|
D|----------------|----------------|-5--------------|-0--------------|

God bless our love, god bless our love.

G|----------------|----------------|----------------|----------------|
D|--------0-------|--------2-------|---------0------|----------------|
A|-3--------------|----------------|-3--------------|----------------|
D|----------------|-5--------------|----------------|-5--------------|

[Chorus]

Spending our lives together, man and wife together.
(Track bass actually plays this an octave lower, this is at the octave of the synth part)

G|-------------7--|----------------|-------------7--|-------------7--|
D|-5--------------|-4--------------|-5--------------|-4--------------|
A|----------------|----------------|----------------|----------------|
D|----------------|----------------|----------------|----------------|

World without end, world without end.

G|----------------|----------------|----------------|----------------|
D|-2--------------|----------------|----------------|----------------|
A|----------------|----------------|----------------|----------------|
D|----------------|----------------|----------------|----------------|

[Verse 3]

Grow old along with me, whatever fate decrees.

G|----------------|----------------|----------------|----------------|
D|-2--------------|----------------|----------------|----------------|
A|----------------|-3--------------|----------------|----------------|
D|----------------|----------------|-5--------------|-0--------------|

We will see it through, for our love is true

G|----------------|----------------|----------------|----------------|
D|-2--------------|----------------|----------------|----------------|
A|----------------|-3--------------|----------------|----------------|
D|----------------|----------------|-5--------------|-0--------------|

God bless our love, god bless our love.

G|----------------|----------------|----------------|----------------|
D|--------0-------|--------2-------|---------0------|----------------|
A|-3--------------|----------------|-3--------------|----------------|
D|----------------|-5--------------|----------------|-5--------------|

God bless our love, god bless our love.

G|----------------|----------------|----------------|----------------|
D|--------0-------|--------2-------|---------0------|----------------|
A|-3--------------|----------------|-3--------------|----------------|
D|----------------|-5--------------|----------------|-5--------------|            
Submit corrections


        Grow Old With Me lessons Hard to play? Try these video lessons and learn fast Grow Old With Me lessons
        
↑ Back to top | Tablatures and chords for acoustic guitar and electric guitar, ukulele, drums are parodies/interpretations of the original songs. You may use it for private study, scholarship, research or language learning purposes only