» » »

Porno For Pyros - Good God's Urge! Chords

Artists:  A B C D E F G H I J K L M N O P Q R S T U V W X Y Z # 

Good God's Urge! Chords

(ver. 1) Click to play this song!
Porno For Pyros
 Rating:
4/5 (4 votes)

 Good God's Urge! lessons Tabs too difficult? Try these video lessons and learn fast
 
                We know this is'nt completely right, but we have the general idea.  Also, the
only part we are tabbing is the 'Good Gods' part.  Send suggestions to

Like to hear it?  Here it go......

"Good Gods Urge" 


CHORDS USED

   A   A(no3rd)  B?   Asus4    E      D

---0------0------0------0------0------0
---0------0------0------0------2------0
---2------2------4------2------2------0
---2------2------4------2------1------2
---2------0------3------3------0------3
---0------0------0------0------0------2


A    A(no3)      A   A(no3)
Good Gods don't take away
B?  A- A(no3)     B?         A-A(no3)     B?  
my father,       give him back his legs
B?		  E               
don't take away his heart
A             A(sus4)
don't take away 
E
his son, his mind,
        A 
his family

(SMALL PAUSE)

A(no3)-A (to second verse)

Second verse is the same progression as the first verse.
The only exception is the end part which is .......

D            A         E
I'm his family.............
Somewhat rough rhythm tab:

---0--0--0--0--0--0--0--0--0--0--0--0--0--0--0--0--0--0--0--0--0
---0--0--0--0--0--0--0--0--0--0--0--0--0--0--0--0--0--0--0--0--0
---2--2--2--2--2--2--2--2--2--2--4--4--4--2--2--4--4--4--2--2--4
---2--2--2--2--2--2--2--2--2--2--4--4--4--2--2--4--4--4--2--2--4
---2--2--2--0--0--2--2--2--0--0--3--3--3--2--0--3--3--3--2--0--3
---0--0--0--0--0--0--0--0--0--0--0--0--0--0--0--0--0--0--0--0--0


---0--0--0--0--0--0--0--0--0--0--0--0--0--0--0
---0--0--0--0--2--2--2--2--2--0--0--0--0--0--2
---4--4--4--4--2--2--2--2--2--2--2--2--2--2--2 Hold "E" then repeat
---4--4--4--4--1--1--1--1--1--2--2--2--2--2--1
---3--3--3--3--0--0--0--0--0--2--2--2--3--2--0
---0--0--0--0--0--0--0--0--0--0--0--0--0--0--0





the rhythm is rather easy to figure out if you have a copy of the song
but we know, Peter plays it higher on the fret board.  It's the general idea.
To be posted later:  Harmonica solo For "Kimberly Austin" arranged for the


Enjoy!!!!

Jared and Dan
            
Submit corrections


        Good God's Urge! lessons Hard to play? Try these video lessons and learn fast Good God's Urge! lessons
        
↑ Back to top | Tablatures and chords for acoustic guitar and electric guitar, ukulele, drums are parodies/interpretations of the original songs. You may use it for private study, scholarship, research or language learning purposes only