» » »

Popeda - Pitka Kuuma Kesa Tabs

Artists:  A B C D E F G H I J K L M N O P Q R S T U V W X Y Z # 

Pitka Kuuma Kesa Tabs

(ver. 1) Click to play this song!
Popeda
 Rating:
2.9/5 (27 votes)

 Pitka Kuuma Kesa lessons Tabs too difficult? Try these video lessons and learn fast
 
                

Intro:

e|-----------------------------------------------------------------|
B|--10--10--9---4---x-------10--10--9--4--5--4-----x---------------|
G|---9---9--9---4---x--------9---9--9--4--4--4-----x---------------|   x2
D|-----------------------------------------------------------------|
A|-----------------------------------------------------------------|
E|-----------------------------------------------------------------|


Intron jalkeen  E - B

    E          -Fast-               B
e|-----------------------------------------------------------------|
B|----------------------------------4-4-4-4------------------------|
G|--1-1------1-1-1-1----------------4-4-4-4------------------------|   
D|--2-2------2-2-2-2----------------4-4-4-4------------------------|
A|--2-2------2-2-2-2----------------2-2-2-2------------------------|
E|-----------------------------------------------------------------|


      1.verse
     
         E
     Han oli tosi upee naky

     lyhyessa kesamekossaan
              C#m
     ma hanet rantatiella nain
                            A      E
     ajoin satamaa pain han nousi satulaan

     
     2. verse
           E
     Pojat rannalla kulkevat ylpeina

     se naisia naurattaa
     C#m
     aurinko selkaan polttaa
          A           B    C
     jaan sisalta sulattaa

     
     -CHORUS-

        C#m         B  A
     On pitka kuuma kesa
           E         C#m
     ja ma aion elaa sen
                 B  A
     pitka kuuma kesa
         B
     sen sain, se mullisti mun maailmain
     

     INTRO 


e|-----------------------------------------------------------------|
B|--10--10--9---4---x-------10--10--9--4--5--4-----x---------------|
G|---9---9--9---4---x--------9---9--9--4--4--4-----x---------------|   x1
D|-----------------------------------------------------------------|
A|-----------------------------------------------------------------|
E|-----------------------------------------------------------------|
     
      3.verse

          E
     Sydan lujaa lyo kun meidat ottaa yo
     
     mennaan toiseen kaupunkiin
     C#m
     sitten naytetaan, tori kierretaan
            A     E
     kyntes uppoo nivusiin



     SOOLO:   Joko Costellon soittama tai oman mielen mukaan, vaikkapa vanha kunnon 
              jokeripokeri? 

     
     Pokeri:

     |--------------10---------------------------------|
     |-----13-12-13----13-12-13-13-13-12-11~~~~11-10---|
     |--10-------------------------------------------12|
     |-------------------------------------------------|
     |-------------------------------------------------|
     |-------------------------------------------------|

    
     |-------------10----------------------------------|
     |----13-12-13----13-12-13-11-11-12-13~~~~11-10----|
     |-10-------------------------------------------12-|
     |-------------------------------------------------|
     |-------------------------------------------------|
     |-------------------------------------------------|

     
     Costello [tai ainaki sinne pain]:
     

     |-------------------------------------------------|
     |----------5---8-6-5----5-6-8-6-5-6-8--------5----|
     |---5--5-7---5-------------------------7-5-7---7--|
     |-5-----------------------------------------------|
     |-------------------------------------------------|
     |-------------------------------------------------|

     |-------------------------------------------------|
     |----------5---8-6-5--5-6-8-5-6-------------------|
     |---5--5-7---5---------------------7---7-5-5------|
     |-5-----------------------------------------------|
     |-------------------------------------------------|
     |-------------------------------------------------|


     CHORUS


             C#m         B  A
     On pitka kuuma kesa
           E         C#m
     ja ma aion elaa sen
                 B  A
     pitka kuuma kesa
         B
     sen sain, se mullisti mun maailmain


     C-osa:

     C#m
     Aamuyon raikas tuuli
          A
     merenrantaan kaveltiin
     F#
     purista mua lujaa beibe
      B           C
     pista silmas kii

     C#m
     Huuda tytto taa maa sun on
               A
     se paasta paahan ajetaan
        F#
     ma tahdon nahda kaiken
        A             B  C
     ja jokaista rakastaa


     Chorus:

        C#m         B  A
     On pitka kuuma kesa
           E         C#m
     ja ma aion elaa sen
                 B  A
     pitka kuuma kesa
         B
     sen sain, se mullisti mun maailmain


INTRO
e|-----------------------------------------------------------------|
B|--10--10--9---4---x-------10--10--9--4--5--4-----x---------------|
G|---9---9--9---4---x--------9---9--9--4--4--4-----x---------------|   x 1
D|-----------------------------------------------------------------|
A|-----------------------------------------------------------------|
E|-----------------------------------------------------------------| 


          Chorus x2

        C#m         B  A
     On pitka kuuma kesa
           E         C#m
     ja ma aion elaa sen
                 B  A
     pitka kuuma kesa
         B
     sen sain, se mullisti mun maailmain  


        C#m         B  A
     On pitka kuuma kesa
           E         C#m
     ja ma aion elaa sen
                 B  A
     pitka kuuma kesa
         B
     sen sain, se mullisti mun maailmain   


e|-----------------------------------------------------------------|
B|--10--10--9---4---x-------10--10--9--4--5--4-----x---------------|
G|---9---9--9---4---x--------9---9--9--4--4--4-----x---------------|   x3
D|-----------------------------------------------------------------|
A|-----------------------------------------------------------------|
E|-----------------------------------------------------------------| 

     E
     en jaaaaaaa



            
Submit corrections


        Pitka Kuuma Kesa lessons Hard to play? Try these video lessons and learn fast Pitka Kuuma Kesa lessons
        
↑ Back to top | Tablatures and chords for acoustic guitar and electric guitar, ukulele, drums are parodies/interpretations of the original songs. You may use it for private study, scholarship, research or language learning purposes only