Home » P » Pointer Sisters »

Pointer Sisters - Fairytale Acoustic Tabs

Artists:  A B C D E F G H I J K L M N O P Q R S T U V W X Y Z # 

Fairytale Acoustic Tabs

(ver. 1) Click to play this song!
Pointer Sisters
 Rating:
4.4/5 (17 votes)
                 BPM = (approx) 125
  4/4
[Intro]
   G                                 C                  
   D   D U D   D U  D   D U D   D U  D   D U D   D U  D   D U D   D U
 E|----3-3-----3-3-|----3-3-----3-3-|----0-0-----0-0-|----0-0-----0-0-|
 B|----0-0-----0-0-|----0-0-----0-0-|----1-1-----1-1-|----1-1-----1-1-|
 G|----0-0-----0-0-|----0-0-----0-0-|----0-0-----0-0-|----0-0-----0-0-|
 D|0-------0-------|0-------0-------|2-------2-------|2-------2-------|
 A|2-------2-------|2-------2-------|3-------3-------|3-------3-------|
 E|3-------3-------|3-------3-------|----------------|----------------|

   G                Am               G                 
   D   D U D   D U  D   D U D   D U  D   D U D   D U  D   D U D   D U
 E|----3-3-----3-3-|----0-0-----0-0-|----3-3-----3-3-|----3-3-----3-3-|
 B|----0-0-----0-0-|----1-1-----1-1-|----0-0-----0-0-|----0-0-----0-0-|
 G|----0-0-----0-0-|----2-2-----2-2-|----0-0-----0-0-|----0-0-----0-0-|
 D|0-------0-------|2-------2-------|0-------0-------|0-------0-------|
 A|2-------2-------|0-------0-------|2-------2-------|2-------2-------|
 E|3-------3-------|----------------|3-------3-------|3-------3-------|
                                                              I'll____

[Verse 1]
   G               
 E|----3-3-----3-3-|----3-3-----3-3-|----3-3-----3-3-|----3-3-----3-3-|
 B|----0-0-----0-0-|----0-0-----0-0-|----0-0-----0-0-|----0-0-----0-0-|
 G|----0-0-----0-0-|----0-0-----0-0-|----0-0-----0-0-|----0-0-----0-0-|
 D|0-------0-------|0-------0-------|0-------0-------|0-------0-------|
 A|2-------2-------|2-------2-------|2-------2-------|2-------2-------|
 E|3-------3-------|3-------3-------|3-------3-------|3-------3-------|
    Pack up all my things and walk away.
                                                      D
                                                      D   D U D U D U
 E|----3-3-----3-3-|----3-3-----3-3-|----3-3-----3-3-|0h2-2-2-2-2-2-2-|
 B|----0-0-----0-0-|----0-0-----0-0-|----0-0-----0-0-|3---3-3-3-3-3-3-|
 G|----0-0-----0-0-|----0-0-----0-0-|----0-0-----0-0-|2---2-2-2-2-2-2-|
 D|0-------0-------|0-------0-------|0-------0-------|0-------0-------|
 A|2-------2-------|2-------2-------|2-------2-------|----------------|
 E|3-------3-------|3-------3-------|3-------3-------|----------------|
    I don't want to hear another     word you have to say

   D7               G                G7               C 
   D   D U D U D U
 E|2---2-2-2-2-2-2-|----3-3-----3-3-|----1-1-----1-1-|----0-0-----0-0-|
 B|1---1-1-1-1-1-1-|----0-0-----0-0-|----0-0-----0-0-|----1-1-----1-1-|
 G|2---2-2-2---2---|----0-0-----0-0-|----0-0-----0-0-|----0-0-----0-0-|
 D|0-------0-------|0-------0-------|0-------0-------|2-------2-------|
 A|----------------|2-------2-------|2-------2-------|3-------3-------|
 E|----------------|3-------3-------|3-------3-------|----------------|
                   I've been waiting for so long I just found out there's
                                             (So long)

   C                G                Am               G
 E|----3-3-----3-3-|----0-0-----0-0-|----0-0-----0-0-|----0-0-----0-0-|
 B|----0-0-----0-0-|----1-1-----1-1-|----1-1-----1-1-|----1-1-----1-1-|
 G|----0-0-----0-0-|----2-2-----2-2-|----2-2-----2-2-|----2-2-----2-2-|
 D|0-------0-------|2-------2-------|2-------2-------|2-------2-------|
 A|2-------2-------|0-------0-------|0-------0-------|0-------0-------|
 E|3-------3-------|----------------|----------------|----------------|
    Something wrong. Nothing will get better    if   I stay.
              (something is wrong)

[Verse 2]
   G               
 E|----3-3-----3-3-|----3-3-----3-3-|----3-3-----3-3-|----3-3-----3-3-|
 B|----0-0-----0-0-|----0-0-----0-0-|----0-0-----0-0-|----0-0-----0-0-|
 G|----0-0-----0-0-|----0-0-----0-0-|----0-0-----0-0-|----0-0-----0-0-|
 D|0-------0-------|0-------0-------|0-------0-------|0-------0-------|
 A|2-------2-------|2-------2-------|2-------2-------|2-------2-------|
 E|3-------3-------|3-------3-------|3-------3-------|3-------3-------|
    There's no need to explain     anymore.                      I____

   G                                                  D
 E|----3-3-----3-3-|----3-3-----3-3-|----3-3-----3-3-|0h2-2-2-2-2-2-2-|
 B|----0-0-----0-0-|----0-0-----0-0-|----0-0-----0-0-|3---3-3-3-3-3-3-|
 G|----0-0-----0-0-|----0-0-----0-0-|----0-0-----0-0-|2---2-2-2-2-2-2-|
 D|0-------0-------|0-------0-------|0-------0-------|0-------0-------|
 A|2-------2-------|2-------2-------|2-------2-------|----------------|
 E|3-------3-------|3-------3-------|3-------3-------|----------------|
    Tried my best to love you, now I'm walkin' out the door.
                                                 (walking out the door)

   D7               G                G7               C 
 E|2---2-2-2-2-2-2-|----3-3-----3-3-|----1-1-----1-1-|----0-0-----0-0-|
 B|1---1-1-1-1-1-1-|----0-0-----0-0-|----0-0-----0-0-|----1-1-----1-1-|
 G|2---2-2-2---2---|----0-0-----0-0-|----0-0-----0-0-|----0-0-----0-0-|
 D|0-------0-------|0-------0-------|0-------0-------|2-------2-------|
 A|----------------|2-------2-------|2-------2-------|3-------3-------|
 E|----------------|3-------3-------|3-------3-------|----------------|
               You used me, you've deceived me. And you never seem to...
                                          (what you trying to do...

   Cm               G                Am               G
 E|----------------|----3-3-----3-3-|----0-0-----0-0-|----3-3-----3-3-|
 B|----4-4-----4-4-|----0-0-----0-0-|----1-1-----1-1-|----0-0-----0-0-|
 G|----5-5-----5-5-|----0-0-----0-0-|----2-2-----2-2-|----0-0-----0-0-|
 D|----5-5-----5-5-|0-------0-------|2-------2-------|0-------0-------|
 A|3-------3-------|2-------2-------|0-------0-------|2-------2-------|
 E|----------------|3-------3-------|----------------|3-------3-------|
    Need me.  But I'll bet, you won't forget me when I go.
  ...to me?)                                           (Oh no, no, no!)
   
   G
 E|----3-3-----3-3-||
 B|----0-0-----0-0-||
 G|----0-0-----0-0-||
 D|0-------0-------||
 A|2-------2-------||
 E|3-------3-------||
    Seems I've been...

[Chorus]
   G
 E|----3-3-----3-3-|----3-3-----3-3-|----3-3-----3-3-|----3-3-----3-3-|
 B|----0-0-----0-0-|----0-0-----0-0-|----0-0-----0-0-|----0-0-----0-0-|
 G|----0-0-----0-0-|----0-0-----0-0-|----0-0-----0-0-|----0-0-----0-0-|
 D|0-------0-------|0-------0-------|0-------0-------|0-------0-------|
 A|2-------2-------|2-------2-------|2-------2-------|2-------2-------|
 E|3-------3-------|3-------3-------|3-------3-------|3-------3-------|
   Lost  in   a   dream.         Pretending that you  care. But now I've 

   G                                 D                D7
 E|----3-3-----3-3-|----3-3-----3-3-|0h2-2-2-2-2-2-2-|2---2-2-2-2-2-2-|
 B|----0-0-----0-0-|----0-0-----0-0-|3---3-3-3-3-3-3-|1---1-1-1-1-1-1-|
 G|----0-0-----0-0-|----0-0-----0-0-|2---2-2-2-2-2-2-|2---2-2-2---2---|
 D|0-------0-------|0-------0-------|0-------0-------|0-------0-------|
 A|2-------2-------|2-------2-------|----------------|----------------|
 E|3-------3-------|3-------3-------|----------------|----------------|
   opened up my eyes. And found it's all been just a great big  fairy-

   G                G7
 E|----3-3-----3-3-|----1-1-----1-1-||
 B|----0-0-----0-0-|----0-0-----0-0-||
 G|----0-0-----0-0-|----0-0-----0-0-||
 D|0-------0-------|0-------0-------||
 A|2-------2-------|2-------2-------||
 E|3-------3-------|3-------3-------||
   -tale.                 I've been-

[Bridge]
   C
 E|----0-0-----0-0-|----0-0-----0-0-|----0-0-----0-0-|----0-0-----0-0-|
 B|----1-1-----1-1-|----1-1-----1-1-|----1-1-----1-1-|----1-1-----1-1-|
 G|----0-0-----0-0-|----0-0-----0-0-|----0-0-----0-0-|----0-0-----0-0-|
 D|2-------2-------|2-------2-------|2-------2-------|2-------2-------|
 A|3-------3-------|3-------3-------|3-------3-------|3-------3-------|
 E|----------------|----------------|----------------|----------------|
   Lovin' you so long. Don't think I'll even know how____      to for-
                     (my love's so strong)               (I can't for-

   G                G7               C  
 E|----3-3-----3-3-|----1-1-----1-1-|----0-0-----0-0-|----0-0-----0-0-|
 B|----0-0-----0-0-|----0-0-----0-0-|----1-1-----1-1-|----1-1-----1-1-|
 G|----0-0-----0-0-|----0-0-----0-0-|----0-0-----0-0-|----0-0-----0-0-|
 D|0-------0-------|0-------0-------|2-------2-------|2-------2-------|
 A|2-------2-------|----------------|3-------3-------|3-------3-------|
 E|3-------3-------|----------------|----------------|----------------|
   -get you.             But now the way that things have been. I think I'm
   -get you.)                         
                                     D
 E|----0-0-----0-0-|----0-0-----0-0-|----2-2-----2-2-|----2-2-----2-2-|
 B|----1-1-----1-1-|----1-1-----1-1-|----3-3-----3-3-|----3-3-----3-3-|
 G|----0-0-----0-0-|----0-0-----0-0-|----2-2-----2-2-|----2-2-----2-2-|
 D|2-------2-------|2-------2-------|0-------0-------|0-------0-------|
 A|3-------3-------|3-------3-------|----------------|----------------|
 E|----------------|----------------|----------------|----------------|
       better off  alone___   than   to be with you___________________!

   (D)
 E|---------------------------------|---------------------------------|
 B|---------------------------------|---------------------------------|
 G|---------------------------------|---------------------------------|
 D|---------------------------------|---------------------------------|
 A|---------------------------------|---------------------------------|
 E|---------------------------------|---------------------------------|
          (You     don't     love     me       it's     plain     to -  

[Verse 3]
   G                 
 E|----3-3-----3-3-|----3-3-----3-3-|----3-3-----3-3-|----3-3-----3-3-|
 B|----0-0-----0-0-|----0-0-----0-0-|----0-0-----0-0-|----0-0-----0-0-|
 G|----0-0-----0-0-|----0-0-----0-0-|----0-0-----0-0-|----0-0-----0-0-|
 D|0-------0-------|0-------0-------|0-------0-------|0-------0-------|
 A|2-------2-------|2-------2-------|2-------2-------|2-------2-------|
 E|3-------3-------|3-------3-------|3-------3-------|3-------3-------|
   You played around, you broke my heart, told me we would never part_
  -see)

   D
 E|----2-2-----2-2-|----2-2-----2-2-|----2-2-----2-2-|----2-2-----2-2-|
 B|----3-3-----3-3-|----3-3-----3-3-|----3-3-----3-3-|----3-3-----3-3-|
 G|----2-2-----2-2-|----2-2-----2-2-|----2-2-----2-2-|----2-2-----2-2-|
 D|0-------0-------|0-------0-------|0-------0-------|0-------0-------|
 A|----------------|----------------|----------------|----------------|
 E|----------------|----------------|----------------|----------------|
   But that wasn't true.                      So what else_____ can I

   D                G
 E|----2-2-----2-2-|----3-3-----3-3-|----3-3-----3-3-|
 B|----3-3-----3-3-|----0-0-----0-0-|----0-0-----0-0-|
 G|----2-2-----2-2-|----0-0-----0-0-|----0-0-----0-0-|
 D|0-------0-------|0-------0-------|0-------0-------|
 A|----------------|2-------2-------|2-------2-------|
 E|----------------|3-------3-------|3-------3-------|
  -Do_____ but move on.

[Solo: Piano]
   G                                                  D        D7
 E|----|-----|-----|--------|-------|--------|-------|--------|-------|
 B|----|-----|-----|--------|-------|--------|-------|--------|-------|
 G|----|-----|-----|--------|-------|--------|-------|--------|-------|
 D|----|-----|-----|--------|-------|--------|-------|--------|-------|
 A|----|-----|-----|--------|-------|--------|-------|--------|-------|
 E|----|-----|-----|--------|-------|--------|-------|--------|-------|

[Solo: Fiddle]
   G                C                G        A       D        G
 E|--------|-------|--------|-------|--------|-------|--------|-------|
 B|--------|-------|--------|-------|--------|-------|--------|-------|
 G|--------|-------|--------|-------|--------|-------|--------|-------|
 D|--------|-------|--------|-------|--------|-------|--------|-------|
 A|--------|-------|--------|-------|--------|-------|--------|-------|
 E|--------|-------|--------|-------|--------|-------|--------|-------|

   G7
 E|----------------||
 B|----------------||
 G|----------------||
 D|----------------||
 A|----------------||
 E|----------------||
             I've been

[Bridge]
   C
 E|----0-0-----0-0-|----0-0-----0-0-|----0-0-----0-0-|----0-0-----0-0-|
 B|----1-1-----1-1-|----1-1-----1-1-|----1-1-----1-1-|----1-1-----1-1-|
 G|----0-0-----0-0-|----0-0-----0-0-|----0-0-----0-0-|----0-0-----0-0-|
 D|2-------2-------|2-------2-------|2-------2-------|2-------2-------|
 A|3-------3-------|3-------3-------|3-------3-------|3-------3-------|
 E|----------------|----------------|----------------|----------------|
   Lovin' you so long. Don't think I'll even know how____      to for-
                      (My love's so strong)               (I can't for-

   G                G7               C  
 E|----3-3-----3-3-|----1-1-----1-1-|----0-0-----0-0-|----0-0-----0-0-|
 B|----0-0-----0-0-|----0-0-----0-0-|----1-1-----1-1-|----1-1-----1-1-|
 G|----0-0-----0-0-|----0-0-----0-0-|----0-0-----0-0-|----0-0-----0-0-|
 D|0-------0-------|0-------0-------|2-------2-------|2-------2-------|
 A|2-------2-------|----------------|3-------3-------|3-------3-------|
 E|3-------3-------|----------------|----------------|----------------|
   -get you.             But now the way that things have been. I think I'm
   -get you.)                         
                                     D
 E|----0-0-----0-0-|----0-0-----0-0-|----2-2-----2-2-|----2-2-----2-2-|
 B|----1-1-----1-1-|----1-1-----1-1-|----3-3-----3-3-|----3-3-----3-3-|
 G|----0-0-----0-0-|----0-0-----0-0-|----2-2-----2-2-|----2-2-----2-2-|
 D|2-------2-------|2-------2-------|0-------0-------|0-------0-------|
 A|3-------3-------|3-------3-------|----------------|----------------|
 E|----------------|----------------|----------------|----------------|
       better off  alone___   than   to be with you___________________!

   (D)
 E|---------------------------------|---------------------------------|
 B|---------------------------------|---------------------------------|
 G|---------------------------------|---------------------------------|
 D|---------------------------------|---------------------------------|
 A|---------------------------------|---------------------------------|
 E|---------------------------------|---------------------------------|
          (You     don't     love     me       it's     plain     to -  

[Verse 4]
   G               
 E|----3-3-----3-3-|----3-3-----3-3-|----3-3-----3-3-|----3-3-----3-3-|
 B|----0-0-----0-0-|----0-0-----0-0-|----0-0-----0-0-|----0-0-----0-0-|
 G|----0-0-----0-0-|----0-0-----0-0-|----0-0-----0-0-|----0-0-----0-0-|
 D|0-------0-------|0-------0-------|0-------0-------|0-------0-------|
 A|2-------2-------|2-------2-------|2-------2-------|2-------2-------|
 E|3-------3-------|3-------3-------|3-------3-------|3-------3-------|
    There's no need to explain     anymore.                      I____

   G                                                  D
 E|----3-3-----3-3-|----3-3-----3-3-|----3-3-----3-3-|0h2-2-2-2-2-2-2-|
 B|----0-0-----0-0-|----0-0-----0-0-|----0-0-----0-0-|3---3-3-3-3-3-3-|
 G|----0-0-----0-0-|----0-0-----0-0-|----0-0-----0-0-|2---2-2-2-2-2-2-|
 D|0-------0-------|0-------0-------|0-------0-------|0-------0-------|
 A|2-------2-------|2-------2-------|2-------2-------|----------------|
 E|3-------3-------|3-------3-------|3-------3-------|----------------|
    Tried my best to love you, now I'm walkin' out the door.
                                                 (walking out the door)

   D7               G                G7               C 
 E|2---2-2-2-2-2-2-|----3-3-----3-3-|----1-1-----1-1-|----0-0-----0-0-|
 B|1---1-1-1-1-1-1-|----0-0-----0-0-|----0-0-----0-0-|----1-1-----1-1-|
 G|2---2-2-2---2---|----0-0-----0-0-|----0-0-----0-0-|----0-0-----0-0-|
 D|0-------0-------|0-------0-------|0-------0-------|2-------2-------|
 A|----------------|2-------2-------|2-------2-------|3-------3-------|
 E|----------------|3-------3-------|3-------3-------|----------------|
               You used me, you've deceived me. And you never seem to..
                                          (what you trying to do...

   Cm               G                Am               G
 E|----------------|----3-3-----3-3-|----0-0-----0-0-|----3-3-----3-3-|
 B|----4-4-----4-4-|----0-0-----0-0-|----1-1-----1-1-|----0-0-----0-0-|
 G|----5-5-----5-5-|----0-0-----0-0-|----2-2-----2-2-|----0-0-----0-0-|
 D|----5-5-----5-5-|0-------0-------|2-------2-------|0-------0-------|
 A|3-------3-------|2-------2-------|0-------0-------|2-------2-------|
 E|----------------|3-------3-------|----------------|3-------3-------|
    Need me.  But I'll bet, you won't forget me when I go.
  ...to me?)                                           (Oh no, no, no!)
   
   G
 E|----3-3-----3-3-||
 B|----0-0-----0-0-||
 G|----0-0-----0-0-||
 D|0-------0-------||
 A|2-------2-------||
 E|3-------3-------||
    Seems I've been...

[Chorus]

   G
 E|----3-3-----3-3-|----3-3-----3-3-|----3-3-----3-3-|----3-3-----3-3-|
 B|----0-0-----0-0-|----0-0-----0-0-|----0-0-----0-0-|----0-0-----0-0-|
 G|----0-0-----0-0-|----0-0-----0-0-|----0-0-----0-0-|----0-0-----0-0-|
 D|0-------0-------|0-------0-------|0-------0-------|0-------0-------|
 A|2-------2-------|2-------2-------|2-------2-------|2-------2-------|
 E|3-------3-------|3-------3-------|3-------3-------|3-------3-------|
   Lost  in   a   dream.         Pretending you  were mine. Someday you'll 
                                  
   G                                 D                D7
 E|----3-3-----3-3-|----3-3-----3-3-|0h2-2-2-2-2-2-2-|2---2-2-2-2-2-2-|
 B|----0-0-----0-0-|----0-0-----0-0-|3---3-3-3-3-3-3-|1---1-1-1-1-1-1-|
 G|----0-0-----0-0-|----0-0-----0-0-|2---2-2-2-2-2-2-|2---2-2-2---2---|
 D|0-------0-------|0-------0-------|0-------0-------|0-------0-------|
 A|2-------2-------|2-------2-------|----------------|----------------|
 E|3-------3-------|3-------3-------|----------------|----------------|
   Open up your eyes.        And realize that a good woman's hard to-
                              
   G                G7
 E|----3-3-----3-3-|----1-1-----1-1-||
 B|----0-0-----0-0-|----0-0-----0-0-||
 G|----0-0-----0-0-|----0-0-----0-0-||
 D|0-------0-------|0-------0-------||
 A|2-------2-------|2-------2-------||
 E|3-------3-------|3-------3-------||
   -find.             Yes I've been-

   G
 E|----3-3-----3-3-|----3-3-----3-3-|----3-3-----3-3-|----3-3-----3-3-|
 B|----0-0-----0-0-|----0-0-----0-0-|----0-0-----0-0-|----0-0-----0-0-|
 G|----0-0-----0-0-|----0-0-----0-0-|----0-0-----0-0-|----0-0-----0-0-|
 D|0-------0-------|0-------0-------|0-------0-------|0-------0-------|
 A|2-------2-------|2-------2-------|2-------2-------|2-------2-------|
 E|3-------3-------|3-------3-------|3-------3-------|3-------3-------|
   Lost  in   a   dream.         Pretending that you  care. But now I've 

   G                                 D                D7
 E|----3-3-----3-3-|----3-3-----3-3-|0h2-2-2-2-2-2-2-|2---2-2-2-2-2-2-|
 B|----0-0-----0-0-|----0-0-----0-0-|3---3-3-3-3-3-3-|1---1-1-1-1-1-1-|
 G|----0-0-----0-0-|----0-0-----0-0-|2---2-2-2-2-2-2-|2---2-2-2---2---|
 D|0-------0-------|0-------0-------|0-------0-------|0-------0-------|
 A|2-------2-------|2-------2-------|----------------|----------------|
 E|3-------3-------|3-------3-------|----------------|----------------|
   opened up my eyes.  And found it's all been just a great big  fairy-

   G                G 
 E|----3-3-----3-3-|----1-1-----1-1-||
 B|----0-0-----0-0-|----0-0-----0-0-||
 G|----0-0-----0-0-|----0-0-----0-0-||
 D|0-------0-------|0-------0-------||
 A|2-------2-------|2-------2-------||
 E|3-------3-------|3-------3-------||
   -tale. Gotta' move y'all!      Move


[Outro]
   G         C      G           C        G     C      G           C
 E|----------------|----------------|----------------|----------------|
 B|----3-----5-----|3-----3-----5---|----3-----5-----|3-----3-----5---|
 G|----4-----5-----|4-----4-----5---|----4-----5-----|4-----4-----5---|
 D|----5-----5-----|5-----5-----5---|----5-----5-----|5-----5-----5---|
 A|----------------|----------------|----------------|----------------|
 E|3-------3-----3-|----3-----3-----|3-------3-----3-|----3-----3-----|
   On!                    Got to move on.                         Move

   G         C      G           C        G     C      G           C
 E|----------------|----------------|----------------|----------------|
 B|----3-----5-----|3-----3-----5---|----3-----5-----|3-----3-----5---|
 G|----4-----5-----|4-----4-----5---|----4-----5-----|4-----4-----5---|
 D|----5-----5-----|5-----5-----5---|----5-----5-----|5-----5-----5---|
 A|----------------|----------------|----------------|----------------|
 E|3-------3-----3-|----3-----3-----|3-------3-----3-|----3-----3-----|
   On!                    Got to move on.                         Move

   G         C      G           C        G     C      G           C
 E|----------------|----------------|----------------|----------------|
 B|----3-----5-----|3-----3-----5---|----3-----5-----|3-----3-----5---|
 G|----4-----5-----|4-----4-----5---|----4-----5-----|4-----4-----5---|
 D|----5-----5-----|5-----5-----5---|----5-----5-----|5-----5-----5---|
 A|----------------|----------------|----------------|----------------|
 E|3-------3-----3-|----3-----3-----|3-------3-----3-|----3-----3-----|
   On!                    Got to move on.                         Move

 E|----------------|----------------|----------------|----------------||
 B|----3-----5-----|3---------------|----------------|------5-----3---||
 G|----4-----5-----|4---------------|----------------|------5-----4---||
 D|----5-----5-----|5---------------|--0h2---0-------|------5-----5---||
 A|----------------|3---------------|-------------0h2|0---------------||
 E|3-------3-----3-|3---------------|----------------|----3-------3---||
   On!(Hit it Nellie)  "I got to move on."
                        

[Chord Chart]

      G              C               D              Am
     o o o            o   o         o             o       o
 ===========    ===========     ===========     ===========
 | | | | | |    | | | | O |     | | | | | |     | | | | O |
 +-+-+-+-+-+     +-+-+-+-+-+     +-+-+-+-+-+     +-+-+-+-+-+
 | O | | | |    | | O | | |     | | | O | O     | | O O | |
 +-+-+-+-+-+     +-+-+-+-+-+     +-+-+-+-+-+     +-+-+-+-+-+
 O | | | | O    | O | | | |     | | | | O |     | | | | | |
 +-+-+-+-+-+     +-+-+-+-+-+     +-+-+-+-+-+     +-+-+-+-+-+
 2 1 o o o 4     x 3 2 o 1 o     x x o 1 3 2     x o 2 3 1 o

      F              C              Cm              G7
                                                    o o o
 ===========    +-+-+-+-+-+     +-+-+-+-+-+     ===========    
 O | | | O O    | O | | | | 3fr | O | | | O 3fr | | | | | O    
 +-+-+-+-+-+    +-+-+-+-+-+     +-+-+-+-+-+     +-+-+-+-+-+      
 | | | O | |    | | | | | |     | | | | O |     | O | | | |    
 +-+-+-+-+-+    +-+-+-+-+-+     +-+-+-+-+-+     +-+-+-+-+-+      
 | O O | | |    | | O O O |     | | O O | |     O | | | | |    
 +-+-+-+-+-+    +-+-+-+-+-+     +-+-+-+-+-+     +-+-+-+-+-+
 1 3 4 3 1 1    x 1 3 3 3 x     x 1 3 4 3 1     3 2 o o o 1

                     G               D7
                     o
                +-+-+-+-+-+     ===========
                O | | | O O 3fr | | | | O |
                +-+-+-+-+-+       +-+-+-+-+-+
                | | | O | |     | | | O | O
                +-+-+-+-+-+       +-+-+-+-+-+
                | O O | | |     | | | | | |
                +-+-+-+-+-+       +-+-+-+-+-+
                1 3 4 3 1 1       x 3 2 o 1 o            
Submit corrections

↑ Back to top | Tablatures and chords for acoustic guitar and electric guitar, ukulele, drums are parodies/interpretations of the original songs. You may use it for private study, scholarship, research or language learning purposes only