Home » P » Poets Of The Fall »

Poets Of The Fall - The Distance Tabs

Artists:  A B C D E F G H I J K L M N O P Q R S T U V W X Y Z # 

The Distance Tabs

(ver. 1) Click to play this song!
Poets Of The Fall
       *  *  *  *    *  *  *  *   *  *  *  *   *  *  *  *
e|----12-12-12-12---19-19-19-19--12-12-12-12--19-19-19-19--------------------|
B|---------------------------------------------------------------------------|
G|---------------------------------------------------------------------------|
D|---------------------------------------------------------------------------|
A|---------------------------------------------------------------------------|
E|---------------------------------------------------------------------------|

      *  *   *  *   *  *  *  *  *  *  *   *  *  *  * *
e|---------------------------------------------------------------------------|
B|----12-12-12-12--19-19-19-19--12-12-12-12--19-19-19-19---------------------|
G|---------------------------------------------------------------------------|
D|---------------------------------------------------------------------------|
A|---------------------------------------------------------------------------|
E|---------------------------------------------------------------------------|

      *  *  *  *   *  *  *  *    *  *  *  *   *  *  * *
e|---------------------------------------------------------------------------|
B|---------------------------------------------------------------------------|
G|----12-12-12-12--19-19-19-19--12-12-12-12--19-19-19-19---------------------|
D|---------------------------------------------------------------------------|
A|---------------------------------------------------------------------------|
E|---------------------------------------------------------------------------|

      *  *  *  *   *  *  *  *   *  *  *  *   *  *  *  *
e|---------------------------------------------------------------------------|
B|---------------------------------------------------------------------------|
G|---------------------------------------------------------------------------|
D|----12-12-12-12--19-19-19-19--12-12-12-12--19-19-19-19---------------------|
A|---------------------------------------------------------------------------|
E|---------------------------------------------------------------------------|


            
Submit corrections

↑ Back to top | Tablatures and chords for acoustic guitar and electric guitar, ukulele, drums are parodies/interpretations of the original songs. You may use it for private study, scholarship, research or language learning purposes only