Home » P » Poets Of The Fall »

Poets Of The Fall - Love Will Come To You Tabs

Artists:  A B C D E F G H I J K L M N O P Q R S T U V W X Y Z # 

Love Will Come To You Tabs

(ver. 1) Click to play this song!
Poets Of The Fall
Guitar 1
          Dm                 F                Am             Am/C
e|--------1-----------------1-----------------0-------------------------------|
B|-----------3-----------------1-----------------1--------1-----1-------------|
G|-----2--------2--------2--------2--------2--------2-------------------------|
D|--0-----------------3-----------------2--------------2----------------------| x7
A|-----------------------------------------------------------3----------------|
E|----------------------------------------------------------------------------|


Pre Chorus:
And those marks are just a sign of something true
you witnessed in your time 
Of something new, like the start of something fine

Guitar 1

e|------1------------1------------0------------1------0----------------------|
B|--------3---3--------3---3--------1---1------------------------------------|
G|----3-----3------2-----2------0-----0------2------0------------------------|
D|---------------0-------------------------3---------------------------------|
A|--1-------------------------3-------------------3--------------------------|
E|---------------------------------------------------------------------------|


Chorus:

Like morning dew love will come again to you
Like morning dew
Morning dew

Guitar 1

e|----------------------------------------------------------------6----------|
B|-----6----------6-----------6----------6------------8-------------6--------|
G|-------7----------7-----------7----------7------------9-------------7------|
D|---8-----8----8-----8-----7-----7----7-----7-----10-----10----8------------|
A|------------------------5----------5---------------------------------------|
E|-6----------6----------------------------------8------------6--------------|

e|-------------------------------------------------------------8-------------|
B|-----6----------6----------6----------6----------6-------------8---8-------|
G|-------7----------7----------7----------7----------6-------------9---------|
D|---7-----7----8-----8----8-----8----7-----7----7-----7----10---------------|
A|-5--------------------------------5----------5-----------------------------|
E|------------6----------6--------------------------------8------------------|

e|------8-----------1---0----------------------------------------------------|
B|--------8---8-----1---1----------------------------------------------------|
G|----------9-------2---0----------------------------------------------------|
D|---10-------------3---2----------------------------------------------------|
A|----------------------3----------------------------------------------------|
E|-8-------------------------------------------------------------------------|

Guitar 2: Chords for Chorus
   A#  Dm  Cadd9 A#  Dm  A#   Dm   Cadd9   F   C
e|-1---1----0-----1---1--------------------1---0------------------------------|
B|-3---3----3-----3---3--------------------1---1------------------------------|
G|-3---2----0-----3---2--------------------2---0------------------------------|
D|-3---3----2-----3---3--------------------3---2------------------------------|
A|-1---0----3-----1---0------------------------3------------------------------|
E|----------------------------------------------------------------------------|

Repeat above for Verse 2 chorus

Bridge:
Love is there when you open the door
and you step off the trail you knew before
Through the streets and the houses of gods you roam
and on their altars you lay your heart of stone

Till all laughter is claws on your skin
and your moments of clarity scream the hell within
When you fade like a rose in the gloom love waits outside your room



e|----------------------------------------------------------------------------|
B|-----8--10--8------6--5--3------5--3--1------3--5--6------------------------|
G|----------------------------------------------------------------------------|
D|-7/8----10--8--5/7----5--3--3/5----3--2--2/3----5--7------------------------| x5
A|----------------------------------------------------------------------------|
E|----------------------------------------------------------------------------|


Solo:

e|-----------------------------5--6--8--8/10--10--10--10--8------8--8/10--10----10--8-------------------------|
B|-6/8--6--5----------5--6--8--------------------------------10------------------------10--6--8--8--6---------|
G|-----------7--5--7------------------------------------------------------------------------------------------|
D|------------------------------------------------------------------------------------------------------------|
A|------------------------------------------------------------------------------------------------------------|
E|------------------------------------------------------------------------------------------------------------|


e|----------------------5------------------------------------5--5/6-6--6--5-----------------------------------|
B|-5-----------5--6--8-----8/10--10--8--6--5--------5--6--8------------------8--6--8/10--10--10--8--6--5--8-8-|
G|----7--5--7---------------------------------7--5------------------------------------------------------------|
D|------------------------------------------------------------------------------------------------------------|
A|------------------------------------------------------------------------------------------------------------|
E|------------------------------------------------------------------------------------------------------------|


e|----------------------------------------5--6--8--8/10--10--10--10--8------8--8/10--10--10--8----------------|
B|-6--5--------------5-----------5--6--8--------------------------------10----------------------10--6--8--8---|
G|-------7--5--7--5-----7--5--7-------------------------------------------------------------------------------|
D|------------------------------------------------------------------------------------------------------------|
A|------------------------------------------------------------------------------------------------------------|
E|------------------------------------------------------------------------------------------------------------|

e|------------------------------------------------------------------------------------------------------------|
B|-6--5--------------5----------------------------------------------------------------------------------------|
G|-------7--5--7--5-----7-------------------------------------------------------------------------------------|
D|-------------------------5--7--5----------------------------------------------------------------------------|
A|----------------------------------8--7--8--7--3--5----------------------------------------------------------|
E|------------------------------------------------------------------------------------------------------------|            
Submit corrections

↑ Back to top | Tablatures and chords for acoustic guitar and electric guitar, ukulele, drums are parodies/interpretations of the original songs. You may use it for private study, scholarship, research or language learning purposes only