Home » P » Plant Robert »

Plant Robert - Darkness Darkness Bass

Artists:  A B C D E F G H I J K L M N O P Q R S T U V W X Y Z # 

Darkness Darkness Bass

(ver. 1) Click to play this song!
Plant Robert
Robert Plant - Darkness, Darkness
Tuning: Standard
No Timing Included

 ~ = let note ring

 Intro (the intro is actually keyboards, but im a bass kind of guy)
G|----15-15h17~--17-17~--17\19--17-15-12h15-15h17-15--------------15-15h17-|
D|-17------------------------------------------------17~-15-15h17----------|
A|-------------------------------------------------------------------------|
E|-------------------------------------------------------------------------|

G|----15-15h17-15h16h17~--17\19--17-15--10h12-10h12-15h17-15---------------15-15h17-|
D|-17--------------------------------------------------------17~-15--15h17----------|
A|----------------------------------------------------------------------------------|
E|----------------------------------------------------------------------------------|

G|----15-15h17~--17-17~--17\19--17-15-12h15-15h17-15--------------15-15h17-|
D|-17------------------------------------------------17~-15-15h17----------|
A|-------------------------------------------------------------------------|
E|-------------------------------------------------------------------------|

G|----15-15h17~--17-17~--17\19--17-15-12h15-15h17-15--------------15-15h17-|-------|
D|-17------------------------------------------------17~-15-15h17----------|-12///-|
A|-------------------------------------------------------------------------|-------|
E|-------------------------------------------------------------------------|-------|

 Verse          ******               *****               ************
G|-5--5--5h7-5-|-5--5-|-5--5--5h7-5-|-----|-------------|---------3/-|
D|-------------|------|-------------|-7-5-|-3--3--3h5-3-|-----3h5----|
A|-------------|------|-------------|-----|-------------|-3h5--------|
E|-------------|------|-------------|-----|-------------|------------|

The parts below the *'s can be variated and aren't at all what is played in the song.
I didn't bother tabbing anything exactly except the intro because i just jam.

For the solo's and things like that i just improv 
with all the notes from the intro and verse.

I will hopefully send more robert plant tabs in the 
future seeing as there aren't too many out there.

ZEPPELIN FOREVER!!!
            
Submit corrections

↑ Back to top | Tablatures and chords for acoustic guitar and electric guitar, ukulele, drums are parodies/interpretations of the original songs. You may use it for private study, scholarship, research or language learning purposes only