Home » P » Pink Floyd »

Pink Floyd - Louder Than Words Tabs

Artists:  A B C D E F G H I J K L M N O P Q R S T U V W X Y Z # 

Louder Than Words Tabs

(ver. 1) Click to play this song!
Pink Floyd
[Intro]
   C#m
e|----------0------------|
B|------4--------4-------|
G|----4---4----4---4-----|
D|--6--------------------|  x4
A|-----------------------|
E|-----------------------|

   B
e|----------0------------|
B|------4--------4-------|
G|----4---4----4---4-----|
D|--4--------------------|  x2
A|-----------------------|
E|-----------------------|

   A
e|----------0------------|
B|------4--------4-------|
G|----4---4----4---4-----|
D|--2--------------------|  x2
A|-----------------------|
E|-----------------------|


[Pre-Verse]
    D
e|----2-3---0----3-2-----|
B|-------------3---------|
G|--2-----2--------------|
D|-----------------------| x2
A|-----------------------| 
E|-----------------------|            
Submit corrections

↑ Back to top | Tablatures and chords for acoustic guitar and electric guitar, ukulele, drums are parodies/interpretations of the original songs. You may use it for private study, scholarship, research or language learning purposes only