» » »

Pink Floyd - Autumn 68 Tabs

Artists:  A B C D E F G H I J K L M N O P Q R S T U V W X Y Z # 

Autumn 68 Tabs

(ver. 1) Click to play this song!
Pink Floyd
 Rating:
4/5 (4 votes)


 Autumn 68  lessons Tabs too difficult? Try these video lessons and learn fast
 
                Tuning: standard

1:10

e|----------------------------------------10---------------------------------|
B|----7-8-10-10pbr-8-7----------7-8-10-12----10pbr-10-10---------------------|
G|--9----------------------------------------------------9-9\7/9-------------|
D|---------------------------------------------------------------------------|
A|---------------------------------------------------------------------------|
E|---------------------------------------------------------------------------|

1:22

e|---------------------------------------------------------------------------|
B|--7b-5---3-5-5-------------------------------------------------------------|
G|---------------4p2h4-------------------------------------------------------|
D|---------------------------------0h2p0h2p0h2-------------------------------|
A|---------------------------------------------------------------------------|
E|---------------------------------------------------------------------------|

            
Submit corrections



        Autumn 68  lessons Hard to play? Try these video lessons and learn fast Autumn 68  lessons
        
↑ Back to top | Tablatures and chords for acoustic guitar and electric guitar, ukulele, drums are parodies/interpretations of the original songs. You may use it for private study, scholarship, research or language learning purposes only