» » »

Pink Floyd - Allons-Y 1 Tabs

Artists:  A B C D E F G H I J K L M N O P Q R S T U V W X Y Z # 

Allons-Y 1 Tabs

(ver. 1) Click to play this song!
Pink Floyd
 Rating:
4/5 (4 votes)
                Gtr I (E A D G B E) - 'David Gilmour - Clean Electric Guitar w/ flanger'
Gtr II (E A D G B E) - 'David Gilmour - Electric Guitar w/ distortion & delay'
Gtr III (E A D G B E) - 'David Gilmour - Electric Guitar w/ distortion'
Gtr IV (E A D G B E) - 'David Gilmour - Clean Electric Guitar'


  Q=113
  N.C.
 4/4
  Gtr I
  E S S E S S E S S E S S   E S S E S S E S S E S S
|-------------------------|-------------------------||
|-------------------------|-------------------------||
|-------------------------|-------------------------||
|-------------------------|-------------------------||
|-------------------------|-------------------------||
|-0-0-0-0-0-0-0-0-0-0-0-0-|-0-0-0-0-0-0-0-0-0-0-0-0-||


    A/E
    E  S  S   E   S     S   E  S S E S S
||---------------------------------------|
||o--------------------------------------|
||---------------------------------------|
||---------------------------------------|
||o--------------------------------------|
||--0--0--0---0---0-----0---0--0-0-0-0-0-|
|
|   Gtr II
|   E.    S  +H.
||---------------------------------------|
||o-8----10-(10)-------------------------|
||--7-----9--(9)-------------------------|
||--9----11-(11)-------------------------|
||o--------------------------------------|
||---------------------------------------|
|
|   Gtr III
|   Q         E   E        +H
||---------------------------------------|
||o--------------15b17====(15)-----------|
||---------------------------------------|
||---------------------------------------|
||o--------------------------------------|
||---------------------------------------|


    E  S S E S S   E    S S E S S   E S S E S S  E  S S E S S
|---------------------------------|---------------------------|
|---------------------------------|---------------------------|
|---------------------------------|---------------------------|
|---------------------------------|---------------------------|
|---------------------------------|---------------------------|
|---0--0-0-0-0-0---0----0-0-0-0-0-|-0-0-0-0-0-0--0--0-0-0-0-0-|
|
|  +W                               Q     E E   +H
|---------------------------------|---------------------------|
|-(10)----------------------------|---------------------------|
|--(9)----------------------------|---------------------------|
|-(11)----------------------------|---------------------------|
|---------------------------------|-5-------7---(7)-----------|
|---------------------------------|---------------------------|
|
|  +H             +E    E   Q       W
|---------------------------------|---------------------------|
|-(15)-----------(15)r\-----------|---------------------------|
|---------------------------------|---------------------------|
|---------------------------------|---------------------------|
|---------------------------------|---------------------------|
|---------------------------------|---------------------------|


   E  S S E S S E S S E        S  S
|--------------------------------------|
|--------------------------------------|
|--------------------------------------|
|--------------------------------------|
|--------------------------------------|
|--0--0-0-0-0-0-0-0-0-0--------0--0----|
|
| +W
|--------------------------------------|
|--------------------------------------|
|--------------------------------------|
|--------------------------------------|
|-(7)----------------------------------|
|--------------------------------------|
|
|  H            Q     S    +E    +T  T
|--------------------------------------|
|--------------------------------------|
|---------------------2b4==(2)r==(2)p0-|
|--------------------------------------|
|--------------------------------------|
|--------------------------------------|


  E        S  S   E   S S E S S  E    S  S     E  S S E S   S   E S S E S S
|------------------------------------------|---------------------------------|
|------------------------------------------|---------------------------------|
|------------------------------------------|---------------------------------|
|------------------------------------------|---------------------------------|
|------------------------------------------|---------------------------------|
|-0--------0--0---0---0-0-0-0-0--0----0--0-|---0--0-0-0-0---0---0-0-0-0-0-0--|
|
| E.          S  +H.                          +W
|------------------------------------------|---------------------------------|
|-8----------10-(10)-----------------------|-(10)----------------------------|
|-7-----------9--(9)-----------------------|--(9)----------------------------|
|-9----------11-(11)-----------------------|-(11)----------------------------|
|------------------------------------------|---------------------------------|
|------------------------------------------|---------------------------------|
|
| S    +E.       +E   E   Q     +E    E        Q      E T T T T q     E E
|------------------------------------------|---------------------------------|
|------------------------------------------|--------------------3-----5p3----|
|-2b3==(2)-------(2)r----------------------|------------2h3p2p0--------------|
|---------------------2---2-----(2)S(14)---|---------------------------------|
|------------------------------------------|---------------------------------|
|------------------------------------------|---------------------------------|


  E     S  S E S S  E  S S E    S  S
|------------------------------------|
|------------------------------------|
|------------------------------------|
|------------------------------------|
|------------------------------------|
|-0-----0--0-0-0-0--0--0-0-0----0--0-|
|
| Q          E E   +H
|------------------------------------|
|------------------------------------|
|------------------------------------|
|------------------------------------|
|-5------------7---(7)---------------|
|------------------------------------|
|
| E    +E    E E    E  E   E   +E
|------------5-----------------------|
|-8b10-(8)-----8----5--5-------------|
|--------------------------7b9-(7)---|
|------------------------------------|
|------------------------------------|
|------------------------------------|


   E  S   S E S S E S S E S S   E  S  S   E  S S E S S E  S     S
|-----------------------------|------------------------------------|
|-----------------------------|------------------------------------|
|-----------------------------|------------------------------------|
|-----------------------------|------------------------------------|
|-----------------------------|------------------------------------|
|--0--0---0-0-0-0-0-0-0-0-0-0-|-0--0--0---0--0-0-0-0-0-0--0-----0--|
|
| +W                            E.    S  +H.
|-----------------------------|------------------------------------|
|-----------------------------|-8----10-(10)-----------------------|
|-----------------------------|-7-----9--(9)-----------------------|
|-----------------------------|-9----11-(11)-----------------------|
|-(7)-------------------------|------------------------------------|
|-----------------------------|------------------------------------|
|
|  E  Q.          H             H                Q     E  E
|-----------------------------|------------------------------------|
|--5--------------------------|--------------------------10b12=====|
|-----7b9---------------------|------------------------------------|
|-----------------------------|------------------------------------|
|-----------------------------|------------------------------------|
|-----------------------------|------------------------------------|


    E    S  S  E S S E S S E   S S
|----------------------------------|
|----------------------------------|
|----------------------------------|
|----------------------------------|
|----------------------------------|
|---0----0--0--0-0-0-0-0-0-0---0-0-|
|
|  +W
|----------------------------------|
|-(10)-----------------------------|
|--(9)-----------------------------|
|-(11)-----------------------------|
|----------------------------------|
|----------------------------------|
|
|  +E   +S  S  E E   E E   S S E
|----------------------------------|
|-(10)r(10)p8-10-8-----------------|
|--------------------9-7-----------|
|--------------------------9s7p5---|
|----------------------------------|
|----------------------------------|


  E S S E   S S  E  S S E S S    E  S S E S S  E  S S E S S
|-----------------------------|------------------------------|
|-----------------------------|------------------------------|
|-----------------------------|------------------------------|
|-----------------------------|------------------------------|
|-----------------------------|------------------------------|
|-0-0-0-0---0-0--0--0-0-0-0-0-|--0--0-0-0-0-0--0--0-0-0-0-0--|
|
| Q     E   E   +H              +H            +E  E   E E
|-----------------------------|------------------------------|
|-----------------------------|------------------------------|
|-----------------------------|------------------------------|
|-----------------------------|------------------------------|
|-5---------7---(7)-----------|-(7)-----------(7)-7---9-7----|
|-----------------------------|------------------------------|
|
| E E   S S E    E  E   Q        q      Q      E  E   E E
|-----------------------------|------------------------------|
|-----------------------------|------------------------------|
|-----------------------------|------------------------------|
|-7--------------5------------|------------------------------|
|---7---7p5h7-------7---7-----|--5---------------------------|
|-----------------------------|-------------------0---2-0----|


  D
  E S S E S S  E  S S E S S
|---------------------------|
|---------------------------|
|---------------------------|
|---------------------------|
|-5-5-5-5-5-5--5--5-5-5-5-5-|
|---------------------------|
|
| H           +E  E   E E
|---------------------------|
|---------------------------|
|---------------------------|
|---------------------------|
|-5-----------(5)-5---7-5---|
|---------------------------|
|
| H           +E  E   E E
|---------------------------|
|---------------------------|
|---------------------------|
|---------------------------|
|-5-----------(5)-5---7-5---|
|---------------------------|


  C                           E
  E S S E S S  E  S S E S S   E S S E  S S E S S E S S
|---------------------------|---------------------------|
|---------------------------|---------------------------|
|---------------------------|---------------------------|
|---------------------------|---------------------------|
|-3-3-3-3-3-3--3--3-3-3-3-3-|---------------------------|
|---------------------------|-0-0-0-0--0-0-0-0-0-0-0-0--|
|
| H           +E  E   E E     W
|---------------------------|---------------------------|
|---------------------------|---------------------------|
|---------------------------|---------------------------|
|---------------------------|---------------------------|
|-3-----------(3)-3---5-3---|-2-------------------------|
|---------------------------|---------------------------|
|
| H           +E  E   E E     Q     H.
|---------------------------|---------------------------|
|---------------------------|---------------------------|
|---------------------------|---------------------------|
|---------------------------|---------------------------|
|-3-----------(3)-3---5-3---|-2s====7-------------------|
|---------------------------|---------------------------|


  1.
   E  S S E S S E S S E S S
|----------------------------||
|---------------------------o||
|----------------------------||
|----------------------------||
|---------------------------o||
|--0--0-0-0-0-0-0-0-0-0-0-0--||
|
| +H            H
|----------------------------||
|---------------------------o||
|----------------------------||
|----------------------------||
|-(2)-----------------------o||
|----------------------------||
|
|  W
|----------------------------||
|---------------------------o||
|----------------------------||
|----------------------------||
|---------------------------o||
|----------------------------||


 2.
                              D
  E S S E S S  E  S S E S S   E S S E S S  E  S S E S S
|---------------------------|----------------------------|
|---------------------------|----------------------------|
|---------------------------|----------------------------|
|---------------------------|----------------------------|
|---------------------------|-5-5-5-5-5-5--5--5-5-5-5-5--|
|-0-0-0-0-0-0--0--0-0-0-0-0-|----------------------------|
|
| H           +E  E   E E     H           +E  E   E E
|---------------------------|----------------------------|
|---------------------------|----------------------------|
|---------------------------|----------------------------|
|---------------------------|----------------------------|
|-7-----------(7)-7---9-7---|-5-----------(5)-5---7-5----|
|---------------------------|----------------------------|
|
| H            E  E   E E     H           +E  E   E E
|---------------------------|----------------------------|
|---------------------------|----------------------------|
|---------------------------|----------------------------|
|---------------------------|----------------------------|
|-----------------7---9-7---|-5-----------(5)-5---7-5----|
|---------------------------|----------------------------|


  C
  E S   S E   S S E S   S E   S S
|---------------------------------|
|---------------------------------|
|---------------------------------|
|---------------------------------|
|-3-3---3-3---3-3-3-3---3-3---3-3-|
|---------------------------------|
|
| |----3----|     |----3----|
| Q   Q     Q     Q   Q     Q
|---------------------------------|
|---------------------------------|
|---------------------------------|
|---------------------------------|
|-3---5-----3-----2---0-----------|
|---------------------------3-----|
|
| |----3----|     |----3----|
| Q   Q     Q     Q   Q     Q
|---------------------------------|
|---------------------------------|
|---------------------------------|
|---------------------------------|
|-3---5-----3-----2---0-----------|
|---------------------------3-----|


  E
  E  S S E S S E S S E  S     S     E   S S E S S E S S E S S
|-------------------------------|-------------------------------||
|-------------------------------|-------------------------------||
|-------------------------------|-------------------------------||
|-------------------------------|-------------------------------||
|-------------------------------|-------------------------------||
|-0--0-0-0-0-0-0-0-0-0--0-----0-|---0---0-0-0-0-0-0-0-0-0-0-0---||
|
| W                                +W
|-------------------------------|-------------------------------||
|-------------------------------|-------------------------------||
|-------------------------------|-------------------------------||
|-------------------------------|-------------------------------||
|-------------------------------|-------------------------------||
|-0-----------------------------|--(0)--------------------------||
|
|                                   ~~~~~
| H.                 E  E          +W
|-------------------------------|-------------------------------||
|----------------------15b17====|=(15)r-------------------------||
|--------------------0----------|-------------------------------||
|-------------------------------|-------------------------------||
|-------------------------------|-------------------------------||
|-0-----------------------------|-------------------------------||


  D
  E S S E S S E S S E S S    E  S S E S S E S S E  S     S
|-------------------------|--------------------------------|
|-------------------------|--------------------------------|
|-------------------------|--------------------------------|
|-------------------------|--------------------------------|
|-5-5-5-5-5-5-5-5-5-5-5-5-|--5--5-5-5-5-5-5-5-5-5--5-----5-|
|-------------------------|--------------------------------|
|
| W                         +W
|-------------------------|--------------------------------|
|-------------------------|--------------------------------|
|-------------------------|--------------------------------|
|-------------------------|--------------------------------|
|-5-----------------------|-(5)----------------------------|
|-------------------------|--------------------------------|
|
| Gtr IV
| W                          H            Q     E  E
|-------------------------|--------------------------------|
|-------------------------|-----------------------15b17====|
|-------------------------|--------------------------------|
|-------------------------|--------------------------------|
|-------------------------|--------------------------------|
|-------------------------|--------------------------------|


  C
    E   S S E S S E S    S E    S S
|------------------------------------|
|------------------------------------|
|------------------------------------|
|------------------------------------|
|---3---3-3-3-3-3-3-3----3-3----3-3--|
|------------------------------------|
|
|   W
|------------------------------------|
|------------------------------------|
|------------------------------------|
|------------------------------------|
|---3--------------------------------|
|------------------------------------|
|
|                 |-----3-----|
|  +H             Q    Q      Q
|---------------------12-----14------|
|-(15)r------------------------------|
|------------------------------------|
|------------------------------------|
|------------------------------------|
|------------------------------------|


   E    S      S E    S S  E S S E S S
|--------------------------------------|
|--------------------------------------|
|--------------------------------------|
|--------------------------------------|
|--3----3------3-3----3-3--3-3-3-3-3-3-|
|--------------------------------------|
|
| +W
|--------------------------------------|
|--------------------------------------|
|--------------------------------------|
|--------------------------------------|
|-(3)----------------------------------|
|--------------------------------------|
|
|  |-------3--------|
|  Q       +Q       Q      H
|-14b15r==(14)-----12------------------|
|-------------------------15-----------|
|--------------------------------------|
|--------------------------------------|
|--------------------------------------|
|--------------------------------------|


  D
  E S S E S S E S S E S S    E  S S E S S E S    S E    S S
|-------------------------|-----------------------------------|
|-------------------------|-----------------------------------|
|-------------------------|-----------------------------------|
|-------------------------|-----------------------------------|
|-5-5-5-5-5-5-5-5-5-5-5-5-|--5--5-5-5-5-5-5-5----5-5----5-5---|
|-------------------------|-----------------------------------|
|
| W                         +W
|-------------------------|-----------------------------------|
|-------------------------|-----------------------------------|
|-------------------------|-----------------------------------|
|-------------------------|-----------------------------------|
|-5-----------------------|-(5)-------------------------------|
|-------------------------|-----------------------------------|
|
|                                         |-----3-----|
| W                          H            Q    Q      Q
|-------------------------|-------------------17-----17-------|
|-------------------------|-----------------------------------|
|-------------------------|-----------------------------------|
|-------------------------|-----------------------------------|
|-------------------------|-----------------------------------|
|-------------------------|-----------------------------------|


  C
   E S S   E   S  S  E  S S E  S  S
|-----------------------------------|
|-----------------------------------|
|-----------------------------------|
|-----------------------------------|
|--3-3-3---3---3--3--3--3-3-3--3--3-|
|-----------------------------------|
|
|  W
|-----------------------------------|
|-----------------------------------|
|-----------------------------------|
|-----------------------------------|
|--3--------------------------------|
|-----------------------------------|
|
|  Q      +E   S  S  E  E   E  S  S
|-17-----(17)-15p14-15p14-----14p12-|
|-----------------------------------|
|-----------------------------------|
|-----------------------------------|
|-----------------------------------|
|-----------------------------------|


                                              D
   E  S S   E     S    S  E S    S E    S S    E S S E S S E S S E S S
|-------------------------------------------|----------------------------|
|-------------------------------------------|----------------------------|
|-------------------------------------------|----------------------------|
|-------------------------------------------|----------------------------|
|--3--3-3---3-----3----3--3-3----3-3----3-3-|--5-5-5-5-5-5-5-5-5-5-5-5---|
|-------------------------------------------|----------------------------|
|
| +W                                           W
|-------------------------------------------|----------------------------|
|-------------------------------------------|----------------------------|
|-------------------------------------------|----------------------------|
|-------------------------------------------|----------------------------|
|-(3)---------------------------------------|--5-------------------------|
|-------------------------------------------|----------------------------|
|
|           |---3----|    |-----3-----|
|  Q       +E   E    E    Q    Q      Q        W
|-14------(14)-12---------------------------|----------------------------|
|-------------------15---15-----------------|----------------------------|
|-----------------------------14-----14-----|-14-------------------------|
|-------------------------------------------|----------------------------|
|-------------------------------------------|----------------------------|
|-------------------------------------------|----------------------------|


                                       C
   E  S S E S S E  S  S   E      S S    E S S E S S   E   S S   E      S S
|------------------------------------|-------------------------------------|
|------------------------------------|-------------------------------------|
|------------------------------------|-------------------------------------|
|------------------------------------|-------------------------------------|
|--5--5-5-5-5-5-5--5--5---5------5-5-|--3-3-3-3-3-3---3---3-3---3------3-3-|
|------------------------------------|-------------------------------------|
|
| +W                                    W
|------------------------------------|-------------------------------------|
|------------------------------------|-------------------------------------|
|------------------------------------|-------------------------------------|
|------------------------------------|-------------------------------------|
|-(5)--------------------------------|--3----------------------------------|
|------------------------------------|-------------------------------------|
|
|  H            E  S  S  +S   E.        H            +E   E    +S   E.
|------------------------------------|-------------------------------------|
|------------------------------------|-------------------------------------|
|------------------------------------|-------------------11---(11)-12------|
|-----------------12h14-(14)-14------|-14-----------(14)-------------------|
|------------------------------------|-------------------------------------|
|------------------------------------|-------------------------------------|


   E  S S E S S   E   S     S   E    S   S
|-------------------------------------------|
|-------------------------------------------|
|-------------------------------------------|
|-------------------------------------------|
|--3--3-3-3-3-3---3---3-----3---3----3---3--|
|-------------------------------------------|
|
| +W
|-------------------------------------------|
|-------------------------------------------|
|-------------------------------------------|
|-------------------------------------------|
|-(3)---------------------------------------|
|-------------------------------------------|
|
|  H             +E   E        +E   +S   S
|-------------------------------------------|
|-------------------------------------------|
|-12------------(12)-14b16====(14)r(14)p12--|
|-------------------------------------------|
|-------------------------------------------|
|-------------------------------------------|


                             H.=H
  D
   E S S E S S E S S E S S    W
|--------------------------|--------|
|--------------------------|--------|
|--------------------------|--------|
|--------------------------|--------|
|--5-5-5-5-5-5-5-5-5-5-5-5-|--5-----|
|--------------------------|--------|
|
|  W                         +W
|--------------------------|--------|
|--------------------------|--------|
|--------------------------|--------|
|--------------------------|--------|
|--5-----------------------|-(5)----|
|--------------------------|--------|
|
|  W                          W
|--------------------------|--------|
|--------------------------|--------|
|-14-----------------------|--------|
|--------------------------|--------|
|--------------------------|--------|
|--------------------------|--------|


           Segue into "Autumn '68"

  Gtr II
  Q.   E H      H    H      W
|-------------|-----------|------*|
|-------------|-----------|------*|
|-------------|-----------|------*|
|-------------|-----------|-2----*|
|-------------|------2----|------*|
|-0----0-2----|-3---------|------*|
            
Submit corrections

↑ Back to top | Tablatures and chords for acoustic guitar and electric guitar, ukulele, drums are parodies/interpretations of the original songs. You may use it for private study, scholarship, research or language learning purposes only