Home » P » Pinback »

Pinback - Loro Bass

Artists:  A B C D E F G H I J K L M N O P Q R S T U V W X Y Z # 

Loro Bass

(ver. 1) Click to play this song!
Pinback
this song is played by two basses

rythym bass is first, third, fifth and seventh four lines
lead bass line is written second, fourth, sixth and eighth four lines

g 19----19----19----19----17----17----17----17----|
d ---15----15----15----15----15----15----15----15-|
a 13----13----13----13----13----13----13----13----| rythym
e ------------------------------------------------|

g ------------------------------------------------|
d ------------------------------------------------|
a 5--------------------5--8-----------------5--8--| lead
e ------------------8-----------------------------|

g 15----15----15----15----17----17----17----17----|
d ---15----15----15----15----15----15----15----15-|
a ------------------------------------------------| rythym
e 15----15----15----15----15----15----15----15----|

g ------------------------------------------------|
d 5-----------------------7-----------------5-----|
a ------------------5--8-----------------------8--| lead
e ------------------------------------------------|

g 14----14----14----14----14----14----14----14----|
d ---15----15----15----15----15----15----15----15-|
a ------------------------------------------12----| rythym
e 13----13----13----11----13----13----13----------|

g ------------------------------------------------|
d ------------------------------------------------|
a 5-----------------8-----------------------8-----| lead
e ------------------------6-----------------------|

g 14----14----14----14----14----14----14----14----|
d ---15----15----15----15----15----15----15----15-|
a ------------------------------------------12----| rythym
e 13----13----13----11----13----13----13----------|

g ------------------------------------------------|
d ------------------------------------------------|
a ------------------------------------------------| lead
e 1-----------------1-----1-----------------1-----|

repeat until your fingers bleed or callous
            
Submit corrections

↑ Back to top | Tablatures and chords for acoustic guitar and electric guitar, ukulele, drums are parodies/interpretations of the original songs. You may use it for private study, scholarship, research or language learning purposes only