Home » P » Pinback »

Pinback - Byzantine Tabs

Artists:  A B C D E F G H I J K L M N O P Q R S T U V W X Y Z # 

Byzantine Tabs

(ver. 1) Click to play this song!
Pinback
 Rating:
4.3/5 (23 votes)
                [Intro]
"Spin my dradle and I will split your atom"
D|---------------------------------------------------------------------------|
A|---------------------------------------------------------------------------|
F|---------------------------------------------------------------------------|
C|---------------------------------------------------------4-4-4-4-----------|   x2
G|-------------------------------10p8--8s5----5---5--5s0---0-0-0-0-----------|
D|-------------------------7s8-8-8-----8s5--5-5-5-5--5s0--0-0-0-0------------|

[Verse]
"Never sure to go for we fear the empire (the empire)"
D|---------------------------------------------------------------------------|
A|---------------------------------------------------------------------------|
F|---------------------------------------------------------------------------|
C|------10-12-10-7-10-5---5-7---5-4------------------------------------------|   2x
G|----------------------5-----5-----5----------------------------------------|
D|---------------------------------------------------------------------------|

[Verse 2]
"Oh-oh-oh-oh"
D|---------------------------------------------------------------------------|
A|---------------------------------------------------------------------------|
F|---------------------------------------------------------------------------|
C|------8-7-8-5---8-7-------8-7-4--------------------------------------------|
G|--------------------8-5---------5------------------------------------------|    2x
D|----------------------------------7----------------------------------------| 

[Chorus]
"Bare medals crumble on"
D|---------------------------------------------------------------------------|
A|---------------------------------------------------------------------------|
F|------------------------5-5-0----------------------------------------------|
C|--------5s12-12s8-8-6---6-6-0----------------------------------------------|    2x
G|------3-3s10-10s6-6-6-7----------------------------------------------------|
D|---------------------------------------------------------------------------|

[Outro]
"Tripping like a sunday
Stand up at my doorstep (ain't no fear)"
D|---------------------------------------------------------------------------|
A|---------------------------------------------------------------------------|
F|------------5-----------------5--------------------------------------------|
C|------7-5-7---7-5-------7-5-7---7-5----------------------------------------|
G|------------------8-5---------------8-5-5-8----------5-8----------5-8------|
D|--------------------------------------------8-7-8-10-----8-7-8-10----------|

D|---------------------------------------------------------------------------|
A|---------------------------------------------------------------------------|
F|------------5-----------------5--------------------------------------------|
C|------7-5-7---7-5-------7-5-7---7-5----------------------------------------|
G|------------------8-5---------------8-5-5-8----------5-8----------5-8------|
D|--------------------------------------------8-7-8-10-----8-7-8-10----------|

D|--------------------------------------------|
A|--------------------------------------------|
F|--------------------------------------------|
C|--------------------------------------------|    4x
G|----------------------5-8----------5-8------|   
D|-------------8-7-8-10-----8-7-8-10----------|

D|---------------------------------------------------------------------------|
A|---------------------------------------------------------------------------|
F|---------------------------------------------------------------------------|
C|---------------------------------------------------------------------------|   
G|--------------5-----8---------------------5-----8--------------------------| 
D|-----8-7-8-10--------8-10-8-8s0-0-0-1------------8-10-8-8s0-0-0-1-1s8------|

[Guitar 1] continues to do this till the end
D|----------------------------------------------------|
A|----------------------------------------------------|
F|----------------------------------------------------|
C|----------------------------------4-4-4-4-----------|
G|--------10p8--8s5----5---5--5s0---0-0-0-0-----------|
D|--7s8-8-8-----8s5--5-5-5-5--5s0--0-0-0-0--0---------|

[Guitar 2]
D|---------------------------------------------------------------------------|
A|---------------------------------------------------------------------------|
F|---------------------------------------------------------------------------|
C|------10-12-10-7-10-5---5-7---5-4------------------------------------------|   2x
G|----------------------5-----5-----5----------------------------------------|
D|---------------------------------------------------------------------------|            
Submit corrections

↑ Back to top | Tablatures and chords for acoustic guitar and electric guitar, ukulele, drums are parodies/interpretations of the original songs. You may use it for private study, scholarship, research or language learning purposes only