Home » P » Pickett Wilson »

Pickett Wilson - Knock On Wood Bass

Artists:  A B C D E F G H I J K L M N O P Q R S T U V W X Y Z # 

Knock On Wood Bass

(ver. 1) Click to play this song!
Pickett Wilson
Track Title:                             Knock On Wood
   

Written by Wilson Pickett




For comments, information or insults: 
     




       Intro                                                   
G||----------------------------|-------------------------|
D||*---------------------------|----7--7--7--7--7--7--7--|
A||*--7--7--7--7--7--7--7--10--|-------------------------|
E||----------------------------|-------------------------|


                                                                                
-----------------------7--|-------------------------|
--9--9--9--9--9--9--9-----|----9--9--9--9--9--9--9--|
--------------------------|-------------------------|
--------------------------|-------------------------|


                             
                          |----------11--------------|
       Verse:             |----------------14----11--|
                          |--12----------------------|
                          |--------------------------|
                          

                            
----------11--------------|----------11--------------|
----------------14----11--|----------------14----11--|
--12----------------------|--12----------------------|
--------------------------|--------------------------|


                                                      
----------11--------------|--------------------------|
----------------14----11--|----------11--------------|
--12----------------------|----------------14----11--|
--------------------------|--12----------------------|


                                                      
--------------------------|--------------------------|
----------11--------------|----------11--------------|
----------------14----11--|----------------14----11--|
--12----------------------|--12----------------------|


                                                      
--------------------------|----------11--------------|
----------11--------------|----------------14----11--|
----------------14----11--|--12----------------------|
--12----------------------|--------------------------|


                                                      
----------11--------------|----------11--------------|
----------------14----11--|----------------14----11--|
--12----------------------|--12----------------------|
--------------------------|--------------------------|


                                                      
----------11--------------|--------------------------|
----------------14----11--|----------11--------------|
--12----------------------|----------------14----11--|
--------------------------|--12----------------------|


                                                      
----------11--------------|--------------------------|
----------------14----11--|----------11--------------|
--12----------------------|----------------14----11--|
--------------------------|--12----------------------|


                                      2x (Repeat twice)                           
----------11--------------|---------------------||
----------------14----11--|--------------------*||
--12----------------------|--------------------*||
--------------------------|--12-----------------||





   Intro variation
|---------------------------|-------------------------|
|---------------------------|----7--7--7--7--7--7--7--|
|--7--7--7--7--7--7--7--10--|-------------------------|
|---------------------------|-------------------------|
                   

                                                         
-----------------------7--|----------------------|
--9--9--9--9--9--9--9-----|----9----7------------|
--------------------------|--------------10------|
--------------------------|----------------------|


      Bridge                                                          
|--------------------------|----------------------------------|
|--------------------------|----------------------------------|
|--9--9--9--9--9--9--9--9--|--11--11--11--11--11--11--11--11--|
|--------------------------|----------------------------------|


                                                       
--------------------------------|---------------------|
--------------------------------|--10--------9--------|
--12--12--12--12--12--12--12----|---------------------|
--------------------------------|---------------------|






Repeat Intro variation and Verse once






 Ending (Fade out)                                                          
|---------------------------|----------11---------------||
|*----------11--------------|----------------14----11--*||
|*----------------14----11--|--12----------------------*||
|---12----------------------|---------------------------||


BMCL Rules!                                             Have fun.
            
Submit corrections

↑ Back to top | Tablatures and chords for acoustic guitar and electric guitar, ukulele, drums are parodies/interpretations of the original songs. You may use it for private study, scholarship, research or language learning purposes only