Home » P » Phylum »

Phylum - Singot Sa Heart Tabs

Artists:  A B C D E F G H I J K L M N O P Q R S T U V W X Y Z # 

Singot Sa Heart Tabs

(ver. 1) Click to play this song!
Phylum
[INTRO] 

 (Guitar 1)

e|--x-x-x-1----x-x-x-5--|--x-x-x-1----x-x-x-5--|
B|--x-x-x-1----x-x-x-5--|--x-x-x-3----x-x-x-5--|
G|--x-x-x-2----x-x-x-5--|--x-x-x-3----x-x-x-5--|
D|--x-x-x-3----x-x-x-5--|--x-x-x-3----x-x-x-5--| x2
A|--x-x-x-3----x-x-x-3--|--x-x-x-1----x-x-x-3--|
E|--x-x-x-1----x-x-x-x--|--x-x-x-x----x-x-x-x--|




[VERSE I]

 (Guitar 1)

e|--x-x-x-1----x-x-x-5--|--x-x-x-1----x-x-x-5--|
B|--x-x-x-1----x-x-x-5--|--x-x-x-3----x-x-x-5--|
G|--x-x-x-2----x-x-x-5--|--x-x-x-3----x-x-x-5--|
D|--x-x-x-3----x-x-x-5--|--x-x-x-3----x-x-x-5--| x3
A|--x-x-x-3----x-x-x-3--|--x-x-x-1----x-x-x-3--|
E|--x-x-x-1----x-x-x-x--|--x-x-x-x----x-x-x-x--|

e|--1~------------------|----------------------|
B|--3~------------------|--5~------------------|
G|--3~------------------|--5~------------------|
D|--3~------------------|--5~------------------|
A|--1~------------------|--3~------------------|
E|----------------------|----------------------|

 (Guitar 2)

e|----------------------|----------------------|
B|--10--8---------------|--10--8--10~----------|
G|---------10~----------|----------------------|
D|----------------------|----------------------|
A|----------------------|----------------------|
E|----------------------|----------------------|




[GUITAR BREAK]

 (Guitar 1)

e|--x-x-x-1----x-x-x-5--|--x-x-x-1----x-x-x-5--|
B|--x-x-x-1----x-x-x-5--|--x-x-x-3----x-x-x-5--|
G|--x-x-x-2----x-x-x-5--|--x-x-x-3----x-x-x-5--|
D|--x-x-x-3----x-x-x-5--|--x-x-x-3----x-x-x-5--| x2
A|--x-x-x-3----x-x-x-3--|--x-x-x-1----x-x-x-3--|
E|--x-x-x-1----x-x-x-x--|--x-x-x-x----x-x-x-x--|




[VERSE II]

 (Guitar 1)

e|--x-x-x-1----x-x-x-5--|--x-x-x-1----x-x-x-5--|
B|--x-x-x-1----x-x-x-5--|--x-x-x-3----x-x-x-5--|
G|--x-x-x-2----x-x-x-5--|--x-x-x-3----x-x-x-5--|
D|--x-x-x-3----x-x-x-5--|--x-x-x-3----x-x-x-5--| 
A|--x-x-x-3----x-x-x-3--|--x-x-x-1----x-x-x-3--|
E|--x-x-x-1----x-x-x-x--|--x-x-x-x----x-x-x-x--|

e|--x-x-x-1----x-x-x-5--|--x-x-----------------|
B|--x-x-x-1----x-x-x-5--|--x-x-----------------|
G|--x-x-x-2----x-x-x-5--|--x-x-----------------|
D|--x-x-x-3----x-x-x-5--|--x-x-----------------| 
A|--x-x-x-3----x-x-x-3--|--x-x-----------------|
E|--x-x-x-1----x-x-x-x--|--x-x-----------------|

e|--------1----x-x-x-5--|--x-x-x-1----x-x-x-5--|
B|--------1----x-x-x-5--|--x-x-x-3----x-x-x-5--|
G|--------2----x-x-x-5--|--x-x-x-3----x-x-x-5--|
D|--------3----x-x-x-5--|--x-x-x-3----x-x-x-5--| 
A|--------3----x-x-x-3--|--x-x-x-1----x-x-x-3--|
E|--------1----x-x-x-x--|--x-x-x-x----x-x-x-x--|

e|---------------------------------------------|
B|---------------------------------------------|
G|----------3-3-3-3--5-5-5-5-5~----------------|
D|--3-3-3-3-3-3-3-3--5-5-5-5-5~----------------|
A|--1-1-1-1-1-1-1-1--3-3-3-3-3~----------------|
E|---------------------------------------------|

 (Guitar 2)

e|----------------------|----------------------|
B|--10--8---------------|--10--8--10~----------|
G|---------10~----------|----------------------|
D|----------------------|----------------------|
A|----------------------|----------------------|
E|----------------------|----------------------|
  PM-----------|
e|---------------------------------------------|
B|---------------------------------------------|
G|-------------------5-5-5-5-5-5-5-5-----------|
D|--3-3-3-3-3-3-3-3--5-5-5-5-5-5-5-5-----------|
A|--1-1-1-1-1-1-1-1--3-3-3-3-3-3-3-3-----------|
E|---------------------------------------------|




[REFRAIN]

 (Guitar 2)

e|---------------------------------------------------------------------------|
B|---------------------------------------------------------------------------|
G|-----------------------5-5-5--7-7-7------------------5-5-5-5-5-5-5-5-------|
D|--7-7----8-8----3-3----5-5-5--7-7-7----7-7----8-8----5-5-5-5-5-5-5-5-------|
A|--7-7----8-8----3-3----3-3-3--5-5-5----7-7----8-8----3-3-3-3-3-3-3-3-------|
E|--5-5----6-6----1-1--------------------5-5----6-6--------------------------|




[CHORUS I]

 (Guitar 2)

e|---------------------------------------------------------------------------|
B|---------------------------------------------------------------------------|
G|-----------5-5-5-5--7-7-7-7--5-5-5-5--3-3-3-3-3-3-3-3--5-5-5-5-5-5-5-5-----|
D|--3-3-3-3--5-5-5-5--7-7-7-7--5-5-5-5--3-3-3-3-3-3-3-3--5-5-5-5-5-5-5-5-----|
A|--3-3-3-3--3-3-3-3--5-5-5-5--3-3-3-3--1-1-1-1-1-1-1-1--3-3-3-3-3-3-3-3-----|
E|--1-1-1-1------------------------------------------------------------------|

e|---------------------------------------------------------------------------|
B|---------------------------------------------------------------------------|
G|-----------5-5-5-5--7-7-7-7--5-5-5-5--3-3-3-3-3-3-3-3--5-5-5-5\------------|
D|--3-3-3-3--5-5-5-5--7-7-7-7--5-5-5-5--3-3-3-3-3-3-3-3--5-5-5-5\------------|
A|--3-3-3-3--3-3-3-3--5-5-5-5--3-3-3-3--1-1-1-1-1-1-1-1--3-3-3-3\------------|
E|--1-1-1-1------------------------------------------------------------------|

 (Guitar 1)

e|---------------------------------------------------------------------------|
B|--/6-6-6-6/8-8-8-8/10-10-10-10\8-8-8-8\6-6-6-6-6-6-6-6/8-8-8-8/10-10-10-10-|
G|---------------------------------------------------------------------------|
D|---------------------------------------------------------------------------|
A|---------------------------------------------------------------------------|
E|---------------------------------------------------------------------------|
                                                               TR------------|
e|---------------------------------------------------------------------------|
B|--/6-6-6-6/8-8-8-8/10-10-10-10\8-8-8-8/10-10-10-10-10-10-10-10-12----------|
G|---------------------------------------------------------------------------|
D|---------------------------------------------------------------------------|
A|---------------------------------------------------------------------------|
E|---------------------------------------------------------------------------|




[GUITAR BREAK]

 (Guitar 1)

e|--x-x-x-1----x-x-x-5--|--x-x-x-1----x-x-x-5--|
B|--x-x-x-1----x-x-x-5--|--x-x-x-3----x-x-x-5--|
G|--x-x-x-2----x-x-x-5--|--x-x-x-3----x-x-x-5--|
D|--x-x-x-3----x-x-x-5--|--x-x-x-3----x-x-x-5--| x2
A|--x-x-x-3----x-x-x-3--|--x-x-x-1----x-x-x-3--|
E|--x-x-x-1----x-x-x-x--|--x-x-x-x----x-x-x-x--|




[VERSE III]

 (Guitar 1)

e|--x-x-x-1----x-x-x-5--|--x-x-x-1----x-x-x-5--|
B|--x-x-x-1----x-x-x-5--|--x-x-x-3----x-x-x-5--|
G|--x-x-x-2----x-x-x-5--|--x-x-x-3----x-x-x-5--|
D|--x-x-x-3----x-x-x-5--|--x-x-x-3----x-x-x-5--| 
A|--x-x-x-3----x-x-x-3--|--x-x-x-1----x-x-x-3--|
E|--x-x-x-1----x-x-x-x--|--x-x-x-x----x-x-x-x--|

e|--x-x-x-1----x-x-x-5--|--x-x-----------------|
B|--x-x-x-1----x-x-x-5--|--x-x-----------------|
G|--x-x-x-2----x-x-x-5--|--x-x-----------------|
D|--x-x-x-3----x-x-x-5--|--x-x-----------------| 
A|--x-x-x-3----x-x-x-3--|--x-x-----------------|
E|--x-x-x-1----x-x-x-x--|--x-x-----------------|

e|--------1----x-x-x-5--|--x-x-x-1----x-x-x-5--|
B|--------1----x-x-x-5--|--x-x-x-3----x-x-x-5--|
G|--------2----x-x-x-5--|--x-x-x-3----x-x-x-5--|
D|--------3----x-x-x-5--|--x-x-x-3----x-x-x-5--| 
A|--------3----x-x-x-3--|--x-x-x-1----x-x-x-3--|
E|--------1----x-x-x-x--|--x-x-x-x----x-x-x-x--|

e|---------------------------------------------|
B|---------------------------------------------|
G|----------3-3-3-3--5-5-5-5-5~----------------|
D|--3-3-3-3-3-3-3-3--5-5-5-5-5~----------------|
A|--1-1-1-1-1-1-1-1--3-3-3-3-3~----------------|
E|---------------------------------------------|

 (Guitar 2)

e|----------------------|----------------------|
B|--10--8---------------|--13--13--13~~--------|
G|---------10~----------|--15b-15b-15b~--------|
D|----------------------|----------------------|
A|----------------------|----------------------|
E|----------------------|----------------------|
  PM-----------|
e|---------------------------------------------|
B|---------------------------------------------|
G|-------------------5-5-5-5-5-5-5-5-----------|
D|--3-3-3-3-3-3-3-3--5-5-5-5-5-5-5-5-----------|
A|--1-1-1-1-1-1-1-1--3-3-3-3-3-3-3-3-----------|
E|---------------------------------------------|




[REFRAIN]

 (Guitar 2)

e|---------------------------------------------------------------------------|
B|---------------------------------------------------------------------------|
G|-----------------------5-5-5--7-7-7------------------5-5-5-5-5-5-5-5-------|
D|--7-7----8-8----3-3----5-5-5--7-7-7----7-7----8-8----5-5-5-5-5-5-5-5-------|
A|--7-7----8-8----3-3----3-3-3--5-5-5----7-7----8-8----3-3-3-3-3-3-3-3-------|
E|--5-5----6-6----1-1--------------------5-5----6-6--------------------------|




[CHORUS II]

 (Guitar 2)

e|---------------------------------------------------------------------------|
B|---------------------------------------------------------------------------|
G|-----------5-5-5-5--7-7-7-7--5-5-5-5--3-3-3-3-3-3-3-3--5-5-5-5-5-5-5-5-----|
D|--3-3-3-3--5-5-5-5--7-7-7-7--5-5-5-5--3-3-3-3-3-3-3-3--5-5-5-5-5-5-5-5-----| x2
A|--3-3-3-3--3-3-3-3--5-5-5-5--3-3-3-3--1-1-1-1-1-1-1-1--3-3-3-3-3-3-3-3-----|
E|--1-1-1-1------------------------------------------------------------------|

 (Guitar 1)

e|---------------------------------------------------------------------------|
B|--/6-6-6-6/8-8-8-8/10-10-10-10\8-8-8-8\6-6-6-6-6-6-6-6/8-8-8-8/10-10-10-10-|
G|---------------------------------------------------------------------------|
D|---------------------------------------------------------------------------|
A|---------------------------------------------------------------------------|
E|---------------------------------------------------------------------------|
                                                               TR------------|
e|---------------------------------------------------------------------------|
B|--/6-6-6-6/8-8-8-8/10-10-10-10\8-8-8-8/10-10-10-10-10-10-10-10-12----------|
G|---------------------------------------------------------------------------|
D|---------------------------------------------------------------------------|
A|---------------------------------------------------------------------------|
E|---------------------------------------------------------------------------|




[BRIDGE II]

 (Guitar 2)

e|-------------------------------------------------------------------------------------------|
B|-------------------------------------------------------------------------------------------|
G|--------------------------------------5-5-5--7-7-7-------------------------5-5-5-5-5-5-5-5-|
D|--7-7-x-x-x-x-8-8-x-x-x-x-3-3-x-x-x-x-5-5-5--7-7-7-7-7-x-x-x-x-8-8-x-x-x-x-5-5-5-5-5-5-5-5-|
A|--7-7-x-x-x-x-8-8-x-x-x-x-3-3-x-x-x-x-3-3-3--5-5-5-7-7-x-x-x-x-8-8-x-x-x-x-3-3-3-3-3-3-3-3-|
E|--5-5-x-x-x-x-6-6-x-x-x-x-1-1-x-x-x-x--------------5-5-x-x-x-x-6-6-x-x-x-x-----------------|




[CHORUS III]

 (Guitar 1)
  PM-------------------------------------------|
e|---------------------------------------------------------------------------|
B|---------------------------------------------------------------------------|
G|-----------5-5-5-5--7-7-7-7--5-5-5-5----------3-3-3-3--5--x-5--x-5-5~------|
D|--3-3-3----5-5-5-5--7-7-7-7--5-5-5-5--3-3-3-3-3-3-3-3--5--x-5--x-5-5~------|
A|--3-3-3-0--3-3-3-3--5-5-5-5--3-3-3-3--1-1-1-1-1-1-1-1--3--x-3--x-3-3~------|
E|--1-1-1-0------------------------------------------------------------------|

e|---------------------------------------------------------------------------|
B|---------------------------------------------------------------------------|
G|-----------5-5-5-5--7-7-7-7--5-5-5-5--3-3-3-3-3-3-3-3--5-5-5-5-5-5-5-5-----|
D|--3-3-3-3--5-5-5-5--7-7-7-7--5-5-5-5--3-3-3-3-3-3-3-3--5-5-5-5-5-5-5-5-----|
A|--3-3-3-3--3-3-3-3--5-5-5-5--3-3-3-3--1-1-1-1-1-1-1-1--3-3-3-3-3-3-3-3-----|
E|--1-1-1-1------------------------------------------------------------------|

 (Guitar 2)

e|-----10---------------|
B|--10----13------------|
G|-----------12-10------|
D|-----------------12---|
A|----------------------|
E|----------------------|

e|---------------------------------------------------------------------------|
B|--/6-6-6-6/8-8-8-8/10-10-10-10\8-8-8-8\6-6-6-6-6-6-6-6-12-12-12-12-10(x8)--|
G|---------------------------------------------------------------------------|
D|---------------------------------------------------------------------------|
A|---------------------------------------------------------------------------|
E|---------------------------------------------------------------------------|




[OUTRO]

e|---------------------------------------------------------------------------|
B|---------------------------------------------------------------------------|
G|--7-7-x-x-x-x-5-5-x-x-x-x-3-3-x-x-x-x-5-5-x-x-x-x-7-7-x-x-x-x-5-5-x-x-x-x--|
D|--7-7-x-x-x-x-5-5-x-x-x-x-3-3-x-x-x-x-5-5-x-x-x-x-7-7-x-x-x-x-5-5-x-x-x-x--|
A|--5-5-x-x-x-x-3-3-x-x-x-x-1-1-x-x-x-x-3-3-x-x-x-x-5-5-x-x-x-x-3-3-x-x-x-x--|
E|---------------------------------------------------------------------------|
                 PM-------|
e|--------------------------------------------------------|
B|--------------------------------------------------------|
G|--3-3-x-x-----------------------------------------------|
D|--3-3-x-x-7-7-7--5-5-5-5-5-5-5-5--3--5--7--5--7--5--3~--|
A|--1-1-x-x-7-7-7--5-5-5-5-5-5-5-5--3--5--7--5--7--5--3~--|
E|----------5-5-5--3-3-3-3-3-3-3-3--1--3--5--3--5--3--1~--|            
Submit corrections

↑ Back to top | Tablatures and chords for acoustic guitar and electric guitar, ukulele, drums are parodies/interpretations of the original songs. You may use it for private study, scholarship, research or language learning purposes only