Home » P » Phylum »

Phylum - Itoy-itoy Bass

Artists:  A B C D E F G H I J K L M N O P Q R S T U V W X Y Z # 

Itoy-itoy Bass

(ver. 1) Click to play this song!
Phylum
April 23,2009

Artist    : Phylum
Title     : Itoy-Itoy

             itong kantang to para sa mga taong torpe 
           hekhek gaya ko jeje "BASS TABS" 99% accurate.

Standard Bass Tuning:

intro:

G--------------------------------------I G------------------------------I
D-12---14------14-12----------14-12h14-I D-12---14------14-12-----------I
A----12---16-12-------12h14-12---------I A----12---16-12-------14-12----I
E--------------------------------------I E------------------------------I

verse 1:

try nyo sabayan nito para ok jeje.                                           

G--------------------------------------I G------------------------------I
D-12---14------14-12----------14-12h14-I D-12---14------14-12-----------I
A----12---16-12-------12h14-12---------I A----12---16-12-------14-12-12\I
E--------------------------------------I E------------------------------I

Chorus:

G-----------------I
D-----------------I
A-5-5-------------I
E-----2-2-3-3-7-5-I

G--------------------I
D--------------------I
A-5-5----------------I
E-----2-2-3-3---5~-5/I


verse 2:
 
G-----------------I  \
D-----------------I   2x to  tol.
A-555-------------I  /
E-----222-333-775-I /


Chorus 2:

G-----------------I  
D-----------------I   
A-555-------------I  
E-----222-333-775-I 

G-----------------------I  
D-----------------------I   
A-555-------------------I  
E-----222-333-55555555/-I 


Brigde:

G-----------------I
D-----------------I
A-----------------I
E-333-555-333-555-I

G-----------------I
D-----------------I
A-----------------I
E-333-555-333-5~--I

Then ito: hahahay hapit ng uwan....................

G--------------------------------------I G------------------------------I
D-12---14------14-12----------14-12h14-I D-12---14------14-12-----------I
A----12---16-12-------12h14-12---------I A----12---16-12-------12~~-----I
E--------------------------------------I E------------------------------I


back to verse 2 then:
chorus/adlib: same lang sa verse 2:
repeat intro to end.



natapos din! if ever may mali sa tabs ko
comment na lang kayo! para maitama ko
paki rate na lng din if ok sa tinga nyo
hello sa barkada ko ITS ME!! ORLEY PAYAT ^,.,^
            
Submit corrections

↑ Back to top | Tablatures and chords for acoustic guitar and electric guitar, ukulele, drums are parodies/interpretations of the original songs. You may use it for private study, scholarship, research or language learning purposes only