Home » P » Phosphorescent »

Phosphorescent - Song For Zula Tabs

Artists:  A B C D E F G H I J K L M N O P Q R S T U V W X Y Z # 

Song For Zula Tabs

(ver. 1) Click to play this song!
Phosphorescent
Tuning:Standard (EADGBe)
   E                               B/F#
e|---------------0---------------0---------------2---------------2-|
B|-----0---------------0---------------4---------------4-----------|
G|o----------1---------------1---------------4---------------4-----|
D|o----2-------2-------2-------2-------4-------4-------4-------4---|
A|---------------------------------2---------------2---------------|
E|-0-------0-------0-------0---------------2---------------2-------|
   C#m                             A*
e|---------------4---------------4---------------5---------------5-|
B|-----5---------------5---------------5---------------5-----------|
G|-----------6---------------6---------------6---------------6----o| x4
D|-----6-------6-------6-------6-------7-------7-------7-------7--o|
A|-4---------------4-----------------------------------------------|
E|---------4---------------4-------5-------5-------5-------5-------|

                       *********OR*********
   E                               B
e|---------------0---------------0---------------2---------------2-|
B|-----0---------------0---------------4---------------4-----------|
G|o----------1---------------1---------------4---------------4-----|
D|o----2-------2-------2-------2-------4-------4-------4-------4---|
A|---------------------------------2---------------2---------------|
E|-0-------0-------0-------0---------------2---------------2-------|
   C#m                             A
e|---------------4---------------4---------------0---------------0-|
B|-----5---------------5---------------2---------------2-----------|
G|-----------6---------------6---------------2---------------2----o| x4
D|-----6-------6-------6-------6-------2-------2-------2-------2--o|
A|-4---------------4---------------0-------0-------0-------0-------|
E|---------4---------------4---------------------------------------|

                       *********OR*********
   E                               B*
e|---------------0---------------0---------------7---------------7-|
B|-----0---------------0---------------7---------------7-----------|
G|o----------1---------------1---------------8---------------8-----|
D|o----2-------2-------2-------2-------9-------9-------9-------9---|
A|-----------------------------------------------------------------|
E|-0-------0-------0-------0-------7-------7-------7-------7-------|
   C#m*                            A*
e|---------------9---------------9---------------5---------------5-|
B|-----9---------------9---------------5---------------5-----------|
G|-----------9---------------9---------------6---------------6----o| x4
D|----(11)----(11)----(11)----(11)-----7-------7-------7-------7--o|
A|-----------------------------------------------------------------|
E|-9-------9-------9-------9-------5-------5-------5-------5-------|

Transition 1
e|---------------5---------------5---------------0---------------0-|
B|-----5---------------5---------------0---------------0-----------|
G|-----------6---------------6---------------1---------------1-----|
D|-----7-------7-------7-------7-------2-------2-------2-------2---|
A|-----------------------------------------------------------------|
E|-5-------5-------5-------5-------0-------0-------0-------0-------|

Transition 2
e|---------------5-------5-------5---------------0---------------0-|
B|-----5-------------------------------0---------------0-----------|
G|-----------6-------6-------6---------------1---------------1-----|
D|-----7-------7-------7-------7-------2-------2-------2-------2---|
A|-----------------------------------------------------------------|
E|-5-------5-------5-------5-------0-------0-------0-------0-------|

Transition 3
e|---------------5---------------5-|
B|-----5---------------5-----------|
G|-----------6---------------6-----|
D|-----7-------7-------7-------7---|
A|---------------------------------|
E|-5-------5-------5-------5-------|

Transition 4
e|---------------5-------5-------5-------5-------5-------5-------5-|
B|-----5-----------------------------------------------------------|
G|-----------6-------6-------6-------6-------6-------6-------6-----|
D|-----7-------7-------7-------7-------7-------7-------7-------7---|
A|-----------------------------------------------------------------|
E|-5-------5-------5-------5-------5-------5-------5-------5-------|

Here are the chords plus lyrics according to each session:
     _ _ _ _ _ _ _ _ _ _ _ _ _ _ _ _ _ _ _ _ _ _ _ _ _ _ _ _ _ _ _ _ _ _ _ _ _ _ _ _ _ _ _ _ _ _ _ _ _ _
      ¯ ¯ ¯ ¯ ¯ ¯ ¯ ¯ ¯ ¯ ¯ ¯ ¯ ¯ ¯ ¯ ¯ ¯ ¯ ¯ ¯ ¯ ¯ ¯ ¯ ¯ ¯ ¯ ¯ ¯ ¯ ¯ ¯ ¯ ¯ ¯ ¯ ¯ ¯ ¯ ¯ ¯ ¯ ¯ ¯ ¯ ¯ ¯ ¯
SPOTIFY LIVE SESSION:

Intro:|E / / /|x6
          E                  B
Some say love is a burning thing
             C#m           A*
And that it makes a fiery ring
               E                 B
Oh but I know love as a fading thing
         C#m                   A
Just as fickle as a feather in a stream
                 E                           B
See, honey, I saw love. You see, it came to me
            C#m                   A*
It put its face up to my face so I could see
                 E       B
Yeah then I saw love disfigure me
      C#m                       A*     [TRANSITION 1]
Into something I am not recognizing yet

                   E                        B
See, the cage, it called. And I said, 'Come on in'
           C#m                     A*
I will not open myself up this way again
            E                        B
Nor lay my face to the soil, nor my teeth to the sand
            C#m                           A*
I will not lay like this for days now upon end
                     E                  B
You will not see me fall, nor see me struggle to stand
          C#m                                   A*
To be acknowledge by some touch from his gnarled hands
                       E                        B
You see, the cage, it called. And I said, 'Come on in'
           C#m                       A* [TRANSITION 2]
I will not open myself up this way again

                         E                     B*
Cause see, the moon is bright in that treetop night
            C#m*                              A*
I see the shadows that we cast in the cold, clean light
                 E            B
And my feet are gold. And my heart is white
        C#m                             A
And we race out on the desert plains all night
              E             B
See, honey, I am not some broken thing
          C#m                               A
I do not lay here in the dark waiting for thee
                E                 B
No my heart is gold. My feet are light
        C#m                             A*    [TRANSITION 3]
And we race out on the desert plains all night

|E / / / |B / / / |C#m / / / |A* / / / |
Oooooooo
|E / / / |B / / / |C#m / / / |A / / / |A / / / |
Ooooooooo

             E         B
So some say love is a burning thing
             C#m                 A*
They say it makes some fiery ring
               E         B
Oh but I know love as a caging thing
        C#m                            A*
Just a killer come to call from some awful dream
              E                      B
Yeah and all you folks, you come to see
           C#m                                A
You just stand there in the glass looking at me
                 E                B
But my heart is wild. And my bones are steam
             C#m                           A         [TRANSITION 2]
And I could kill you with my bare hands if I was free

|E / / / |B* / / / |C#m* / / / |A* / / / |
|E / / / |B* / / / |C#m* / / / |A*|

     _ _ _ _ _ _ _ _ _ _ _ _ _ _ _ _ _ _ _ _ _ _ _ _ _ _ _ _ _ _ _ _ _ _ _ _ _ _ _ _ _ _ _ _ _ _ _ _ _ _
      ¯ ¯ ¯ ¯ ¯ ¯ ¯ ¯ ¯ ¯ ¯ ¯ ¯ ¯ ¯ ¯ ¯ ¯ ¯ ¯ ¯ ¯ ¯ ¯ ¯ ¯ ¯ ¯ ¯ ¯ ¯ ¯ ¯ ¯ ¯ ¯ ¯ ¯ ¯ ¯ ¯ ¯ ¯ ¯ ¯ ¯ ¯ ¯ ¯
ROCKSTONE LIVE SESSION:(Note: he actually messes up the lyrics in this version)

Intro:|E / / /|x10(approx.)
          E                  B
Some say love is a burning thing
         C#m              A*
That it makes a fiery ring
               E           B
Oh but I know love as a fading thing
         C#m                  A
Just as fickle as a feather in a stream
                 E                           B
See, honey, I saw love. You see, it came to me
            C#m                  A
It put its face up to my face so I could see
                 E       B
Yeah then I saw love disfigure me
      C#m                       A  [TRANSITION 2]
Into something I am not recognizing

                       E                    B
You see, the cage, it called. I said, 'Come on in'
           C#m                       A
I will not open myself up this way again
                        E             B
Nor lay my face to the soil, nor my teeth to the sand
            C#m                            A*
I will not lay like this for days now upon end
                     E                  B
You will not see me fall, nor see me struggle to stand
          C#m                                   A
To be acknowledge by some touch from his gnarled hands
                       E                        B
You see, the cage, it called. And I said, 'Come on in'
           C#m                       A  [TRANSITION 2]
I will not open myself up this way again

                       E                     B
You see, the moon is bright in that treetop night
            C#m                                    A*
I see the shadows that we cast in the cold, clean light
                 E                      B
And my feet are gold. And my heart is white
        C#m                             A*
And we race out on the desert plains all night
                  E         B
See, honey, I am not some broken thing
          C#m                        A
I do not lay here in the dark waiting for thee
                E                 B
No my feet are gold. And my heart is white
        C#m                             A**   [TRANSITION 4]
And we race out on the desert plains all night

|E / / / |x4

             E                    B
So some say love, they say its a burning thing
             C#m                 A*
They say it makes some fiery ring
                E         B
Oh, but I know love as a caging thing
        C#m                             A        
Just a killer come to call from some awful dream
Asus2             E                  B
Yeah and all you folks, you come to see
           C#m                                A*
You just stand there in the glass looking at me
                 E            B
But my feet are gold. And my bones are steam
             C#m                                   A* [TRANSITION 3]
And I could kill you with my bare hands if I was free

|E / / / |B / / / |C#m / / Bsus2 |A* |
            
Submit corrections

↑ Back to top | Tablatures and chords for acoustic guitar and electric guitar, ukulele, drums are parodies/interpretations of the original songs. You may use it for private study, scholarship, research or language learning purposes only