» » »

Phish - Gotta Jiboo Tabs

Artists:  A B C D E F G H I J K L M N O P Q R S T U V W X Y Z # 

Gotta Jiboo Tabs

(ver. 1) Click to play this song!
Phish
 Rating:
4/5 (4 votes)

 Gotta Jiboo lessons Tabs too difficult? Try these video lessons and learn fast
 
                e----------------------------------------
B-------5---x-3--------------5--5--------
G-------4---x-2----3---------4--4--------
D--2/6--6---x-4--4---4--4/6--6--6--------
A----------------------------------------
E----------------------------------------


e--4----------------2---------
B--5----------------3---------
G--4----------------2---------
D--6----------------4---------
A--7----------------5---------
E--0------(0)-------0---------

 Let the E ring out

It sounds pretty good to me. 
                      Enjoi!
            
Submit corrections


        Gotta Jiboo lessons Hard to play? Try these video lessons and learn fast Gotta Jiboo lessons
        
↑ Back to top | Tablatures and chords for acoustic guitar and electric guitar, ukulele, drums are parodies/interpretations of the original songs. You may use it for private study, scholarship, research or language learning purposes only