» » »

Phish - Crimes Of The Mind Tabs

Artists:  A B C D E F G H I J K L M N O P Q R S T U V W X Y Z # 

Crimes Of The Mind Tabs

(ver. 1) Click to play this song!
Phish
 Rating:
4.4/5 (8 votes)

 Crimes Of The Mind lessons Tabs too difficult? Try these video lessons and learn fast
 
                
[Intro]
  G            D                 A                  E             
E|----------------------------------------------------------------|--
B|-----12---------------------------12------12--12-------(12)-----|--
G|-----14b16r14~--(X)--(X)----------12------12--12-------(12)-----|--
D|-------------------------12--14~------14----------14~-----(14)--|--
A|----------------------------------------------------------------|-- 
E|----------------------------------------------------------------|--
   -repeat 3 times-

  G            D                 A                  E             
E|-----------------------------------------------------------------|--
B|-----12---------------------------12------12--12-----------------|--
G|-----14b16r14~--(X)--(X)----------12------12--12--------12--14---|--
D|-------------------------12--14~------14----------14~------------|--
A|-----------------------------------------------------------------|-- 
E|-----------------------------------------------------------------|--

   E                                  G
E|--------------------------------------------|--
B|-----12-----------------12------------------|--
G|-----14b16r14~--(x7)----14b16r14p12---------|--
D|------------------------------------14------|--
A|--------------------------------------------|-- 
E|--------------------------------------------|--

[Verse 1]
  G            D                        A                             E
E|-----------------------------------|--------------------------------------------|--
B|-----12----------------------------|-------------12----------12--12-------12----|--
G|-----14b16r14~--(X)--(X)-----------|-------------12----------12--12-------12----|--
D|-------------------------12--14~---|--12h14----------14-------------14~------14-|--
A|-----------------------------------|--------------------------------------------|--
E|-----------------------------------|--------------------------------------------|--
                                        Bigger than man walking on the moon

  G            D                        A                             E
E|-----------------------------------|------------------------------------------|--
B|-----12----------------------------|-------------12-------12--12--------12----|--
G|-----14b16r14~--(X)--(X)-----------|-------------12-------12--12--------12----|--
D|-------------------------12--14~---|-----------------14-----------14~------14-|--
A|-----------------------------------|------------------------------------------|--
E|-----------------------------------|------------------------------------------|--
                                       Coming to a theater  near you soon

  G            D                        A                             E
E|-----------------------------------|--------------------------------------------|--
B|-----12----------------------------|-------------12----------12--12-------12----|--
G|-----14b16r14~--14--12-------------|-------------12----------12--12-------12----|--
D|-------------------------12--14~---|-----------------14-------------14~------14-|--
A|-----------------------------------|--------------------------------------------|--
E|-----------------------------------|--------------------------------------------|--
                                        This is   what I'm     living for

  G            D                        A                             E
E|-----------------------------------|---------------------------------------------|--
B|-----12----------------------------|-----------------12-----------12--12---------|--
G|-----14b16r14~--14--12-------------|-----------------12-----------12--12---------|--
D|-------------------------12--14~---|----------------------14------------------14-|--
A|-----------------------------------|---------------------------------------------|--
E|-----------------------------------|---------------------------------------------|--
                                      You give a little bit and you want a little more

[Pre-Chorus]
E|-----------------------------------|----------------------------------|--
B|-----------------------------------|----------------------------------|--
G|-----------------------------------|----------------------------------|--
D|--------2~-----0-------------------|--------2~---0--2--0-----5--4--2--|--
A|-------------2---2--1--0-----------|----------------------------------|--
E|--0--0--------------------3--2--1--|--0--0----------------------------|--

E|-----------------------------------|----------------------------------|--
B|-----------------------------------|----------------------------------|--
G|-----------------------------------|----------------------------------|--
D|--------2~-----0-------------------|--------2~---0--2--0-----5--4--2--|--
A|-------------2---2--1--0-----------|----------------------------------|--
E|--0--0--------------------3--2--1--|--0--0----------------------------|--

[Chorus]

G             D     A             E
Everything is fine, crimes of the mind
G                D     A             E
I drank a little wine, crimes of the mind
G                    D      A 
And here’s to modern times, crimes.......of the
  E
  mind
E|--------------------------------------------|--
B|-----12-----------------12------------------|--
G|-----14b16r14~--(x7)----14b16r14p12---------|--
D|------------------------------------14------|--
A|--------------------------------------------|-- 
E|--------------------------------------------|--

[Verse 2]
  G            D                        A                             E
E|-----------------------------------|---------------------------------------------|--
B|-----12----------------------------|-------------12----------12--12--------12----|--
G|-----14b16r14~--(X)--(X)-----------|-------------12----------12--12--------12----|--
D|-------------------------12--14~---|--12h14----------14--------------14~------14-|--
A|-----------------------------------|---------------------------------------------|--
E|-----------------------------------|---------------------------------------------|--
                                        Every     dog will    have it's day

  G            D                        A                             E
E|-----------------------------------|-------------------------------------------|--
B|-----12----------------------------|-------------12-------12---12--------12----|--
G|-----14b16r14~--(X)--(X)-----------|-------------12-------12---12--------12----|--
D|-------------------------12--14~---|------------------14-----------14~------14-|--
A|-----------------------------------|-------------------------------------------|--
E|-----------------------------------|-------------------------------------------|--
                                     And all these dogs just want to play

  G            D                        A                             E
E|-----------------------------------|----------------------------------------------|--
B|-----12----------------------------|-------------12----------12---12--------12----|--
G|-----14b16r14~--14p1-2-------------|-------------12----------12---12--------12----|--
D|-------------------------12--14~---|----------------------------------14~------14-|--
A|-----------------------------------|----------------------------------------------|--
E|-----------------------------------|----------------------------------------------|--
                                        You will  reap         what you sow

  G            D                        A                             E
E|-----------------------------------|------------------------------------------|--
B|-----12----------------------------|-----------------12-----------12--12------|--
G|-----14b16r14~--14p1-2-------------|-----------------12-----------12--12------|--
D|-------------------------12--14~---|----------------------14---------------14-|--
A|-----------------------------------|------------------------------------------|--
E|-----------------------------------|------------------------------------------|--
                                    But the real truth we  will     never    know

[Pre-Chorus]
(Guitar 1)
E|----------------------------------------------------------|--
B|--0------------0------------------------------------------|--
G|--2b4~--~--r2--2-b4-r2-b4-r2-b4-r2-p0--------0~----0~-----|--
D|---------------------------------------2~-~-----2~-----2~-|---
A|----------------------------------------------------------|--
E|----------------------------------------------------------|--
(Guitar 2 - repeat 2x)
E|-----------------------------------|----------------------------------|--
B|-----------------------------------|----------------------------------|--
G|-----------------------------------|----------------------------------|--
D|--------2~-----0-------------------|--------2~---0--2--0-----5--4--2--|--
A|-------------2---2--1--0-----------|----------------------------------|--
E|--0--0--------------------3--2--1--|--0--0----------------------------|--

E|-----------------------------------|----------------------------------|--
B|-----------------------------------|----------------------------------|--
G|-----------------------------------|----------------------------------|--
D|--------2~-----0-------------------|--------2~---0--2--0-----5--4--2--|--
A|-------------2---2--1--0-----------|----------------------------------|--
E|--0--0--------------------3--2--1--|--0--0----------------------------|--

(Guitar 1)
E|----------------------------------------------------------19--------------|--
B|--0-----12------13----14----15----16----17----18----19----21b23r21p20-----|--
G|--2b4~--14b16~--15b17-16b17-17b19-18b20-19b21-20b22-21b23-------------21--|--
D|--------------------------------------------------------------------------|---
A|--------------------------------------------------------------------------|--
E|--------------------------------------------------------------------------|--
(Guitar 2 - repeat 2x)
E|-----------------------------------|----------------------------------|--
B|-----------------------------------|----------------------------------|--
G|-----------------------------------|----------------------------------|--
D|--------2~-----0-------------------|--------2~---0--2--0-----5--4--2--|--
A|-------------2---2--1--0-----------|----------------------------------|--
E|--0--0--------------------3--2--1--|--0--0----------------------------|--

E|-----------------------------------|----------------------------------|--
B|-----------------------------------|----------------------------------|--
G|-----------------------------------|----------------------------------|--
D|--------2~-----0-------------------|--------2~---0--2--0-----5--4--2--|--
A|-------------2---2--1--0-----------|----------------------------------|--
E|--0--0--------------------3--2--1--|--0--0----------------------------|--

[Chorus 2]

G             D     A             E
Everything is fine, crimes of the mind
G                D     A             E
I drank a little wine, crimes of the mind
G                    D      A 
And here’s to modern times, crimes.......of the
  E
  mind
E|-----------------------------------|----------------------------------|--
B|-----------------------------------|----------------------------------|--
G|-----------------------------------|----------------------------------|--
D|--------2~-----0-------------------|--------2~---0--2--0-----5--4--2--|--
A|-------------2---2--1--0-----------|----------------------------------|--
E|--0--0--------------------3--2--1--|--0--0----------------------------|--

G              D      A             E
Rolling in the grime, crimes of the mind
G             D     A             E
Digging for a dime, crimes of the mind
G                     D      A 
The blind leading the blind, crimes....of the
  E
  mind
E|------------------------------------|----------------------------------|--
B|------------------------------------|----------------------------------|--
G|------------------------------------|----------------------------------|--
D|--------2~--0---0-------------------|--------2~---0--2--0-----5--4--2--|--
A|--------------2---2--1--0-----------|----------------------------------|--
E|--0--0---------------------3--2--1--|--0--0----------------------------|--

G             D     A             E
Everything is fine, crimes of the mind
G                D     A             E
I drank a little wine, crimes of the mind
G                    D      A 
And here’s to modern times, crimes.......of the
  E
  mind
E|------------------------------------|----------------------------------|--
B|------------------------------------|----------------------------------|--
G|------------------------------------|----------------------------------|--
D|--------2~--0---0-------------------|--------2~---0--2--0-----5--4--2--|--
A|--------------2---2--1--0-----------|----------------------------------|--
E|--0--0---------------------3--2--1--|--0--0----------------------------|--

[Outro - solo in Em over]
G              D      A             E
Rolling in the grime, crimes of the mind
G             D     A             E
Digging for a dime, crimes of the mind
G                     D      A                E
The blind leading the blind, crimes....of the mind            
Submit corrections


        Crimes Of The Mind lessons Hard to play? Try these video lessons and learn fast Crimes Of The Mind lessons
        
↑ Back to top | Tablatures and chords for acoustic guitar and electric guitar, ukulele, drums are parodies/interpretations of the original songs. You may use it for private study, scholarship, research or language learning purposes only