Home » P » Phish »

Phish - Bathtub Gin Solo Tabs

Artists:  A B C D E F G H I J K L M N O P Q R S T U V W X Y Z # 

Bathtub Gin Solo Tabs

(ver. 1) Click to play this song!
Phish
Stave 1:
C Major outline
E|--------------------------------------------------------------------------------------|
B|--13----------------------------------------------------------------------------------|
G|------12--14--15--14--15--14----------------------------------------------------------|
D|------------------------------14--15--17--15--14--13--14--15--13--14------------------|
A|--------------------------------------------------------------------------15------13--|
E|----------------------------------------------------------------------15------15------|

Stave 2:
F Major outline
E|--------------------------------------------------------------------------------------------|
B|--------------------------------------------------------------------------------------------|
G|--------------14--17--15--13h14------14--15--17b19--17--13--14--15--13--14------------------|
D|--15------15---------------------15---------------------------------------------15------13--|
A|----------------------------------------------------------------------------15------15------|
E|--------------------------------------------------------------------------------------------|
            
Submit corrections

↑ Back to top | Tablatures and chords for acoustic guitar and electric guitar, ukulele, drums are parodies/interpretations of the original songs. You may use it for private study, scholarship, research or language learning purposes only