» » »

Phil Wickham - Living Hope Tabs

Artists:  A B C D E F G H I J K L M N O P Q R S T U V W X Y Z # 

Living Hope Tabs

(ver. 1) Click to play this song!
Phil Wickham
 Rating:
4.3/5 (26 votes)

 Living Hope lessons Tabs too difficult? Try these video lessons and learn fast
 
                Stave 1:

e|--------------------------------|
B|--3-----3/5-----3--3\2--3--5\3--|
G|-----2--------------------------|
D|--------------------------------|
A|--------------------------------|
E|--------------------------------|

Stave 2:

e|-----------------------------------------------------------------|
B|--3--2--3--3/5--5\3v--2--3--5--5\3--3-----3--5-----3--2--3--5\3--|
G|---------------------------------------2-------------------------|
D|-----------------------------------------------------------------|
A|-----------------------------------------------------------------|
E|-----------------------------------------------------------------|

Stave 3:

e|-----------------------------------------------------------------|
B|--3-----2--3v--3-----2--3v--3-----3/5--8\7--7\5--5\3--3/5--5\3v--|
G|-----2------------2------------2---------------------------------|
D|-----------------------------------------------------------------|
A|-----------------------------------------------------------------|
E|-----------------------------------------------------------------|

Stave 4:

e|--------------------------------------------------------------------------------------------|
B|--3--2--3--3/5-----3--2--3--5--3-----3--2--3--3/5-----3--2--3/5--5\3--3/5--5\3--3--3--3--3--|
G|--------------------------------------------------------------------------------------2--2--|
D|--------------------------------------------------------------------------------------------|
A|--------------------------------------------------------------------------------------------|
E|--------------------------------------------------------------------------------------------|

Stave 5:

e|-----------------------------------------------------------------------|
B|--8-----1-----8-----1-----8-----1-----8--1-----8--1-----------8--1-----|
G|--7--7--2--4--7--7--2--4--7--7--2--4--7--2--7--7--2--7--------7--2--7--|
D|--5--7--2--4--5--7--2--4--5--7--2--4--5--2--7--5--2--7--------5--2--7--|
A|-----5--0--2-----5--0--2-----5--0--2-----0--5-----0--5-----------0--5--|
E|-----------------------------------------------------------------------|
            
Submit corrections


        Living Hope lessons Hard to play? Try these video lessons and learn fast Living Hope lessons
        
↑ Back to top | Tablatures and chords for acoustic guitar and electric guitar, ukulele, drums are parodies/interpretations of the original songs. You may use it for private study, scholarship, research or language learning purposes only