» » »

Phillip Phillips - Home Bass

Artists:  A B C D E F G H I J K L M N O P Q R S T U V W X Y Z # 

Home Bass

(ver. 1) Click to play this song!
Phillip Phillips
 Rating:
4/5 (4 votes)

 Home lessons Tabs too difficult? Try these video lessons and learn fast
 
                Tuning: Standard

No bass till [0:32]

G|----------------------------------|
D|10-9-7----7~----------------------|
A|-------10-----------------8-7-5-5-|
E|----------------------------------|

G|----------------|    |----------------|
D|----------------|    |----------------|
A|3-3-3-3-3-3-3-3-|    |3-3-3-3-3-3-3---|
E|----------------| x4 |--------------3-|

G|----------------|----------------|----------------------------------|
D|----------------|----------------|10-9-7----------------------------|
A|----------------|3-3-3-3---------|-------10-0-0-0-0-0-0-0-0-8-7-5-5-|
E|5-5-5-5-1-1-1-1-|--------3-3-3-3-|----------------------------------|

G|----------------|
D|----------------|
A|3-3-3-3-3-3-3-3-|
E|----------------|

You can play here some parts octave lower but it doesn't sound right for me.

G|----------------------------------------|  
D|----------------------------------------|  
A|8-8-8-8-------7-12-12-12-12-10-10-10----|  
E|--------8-8-8------------------------12-|  
                                           
G|----------------------------------------| 
D|----------------------------------------|
A|8-8-8-8---------10-10-10-10-10-10-10-10-| 
E|--------8-8-8-8-------------------------|  

G|----------------------------------------|  |
D|----------------------------------------|  |
A|8-8-8-8-------7-12-12-12-12-10-10-10----|  |
E|--------8-8-8------------------------12-|  |
                                             | x2
G|----------------------------------------|  |
D|----------------------------------------|  |
A|8-8-8-8---------10-10-10-10-10-10-10-10-|  |
E|--------8-8-8-7-------------------------|  |


G|----------------|    |----------------|
D|----------------|    |----------------|
A|3-3-3-3-3-3-3-3-|    |3-3-3-3-3-3-3---|
E|----------------| x3 |--------------3-|

G|----------------|----------------|----------------------------------|
D|----------------|----------------|10-9-7----------------------------|
A|----------------|3-3-3-3---------|-------10-0-0-0-0-0-0-0-0-8-7-5-5-|
E|5-5-5-5-1-1-1-1-|--------3-3-3-3-|----------------------------------|

G|----------------|
D|----------------|
A|3-3-3-3-3-3-3-3-|
E|----------------|

G|----------------------------------------|  |
D|----------------------------------------|  |
A|8-8-8-8-------7-12-12-12-12-10-10-10----|  |
E|--------8-8-8------------------------12-|  |
                                             | x2
G|----------------------------------------|  |
D|----------------------------------------|  |
A|8-8-8-8---------10-10-10-10-10-10-10-10-|  |
E|--------8-8-8-7-------------------------|  |

/  slide up
\  slide down
h  hammer-on
p  pull-off
~  let ring
            
Submit corrections


        Home lessons Hard to play? Try these video lessons and learn fast Home lessons
        
↑ Back to top | Tablatures and chords for acoustic guitar and electric guitar, ukulele, drums are parodies/interpretations of the original songs. You may use it for private study, scholarship, research or language learning purposes only