Home » P » Phil Collins »

Phil Collins - I Wish It Would Rain Down Bass

Artists:  A B C D E F G H I J K L M N O P Q R S T U V W X Y Z # 

I Wish It Would Rain Down Bass
Version #1
Phil Collins


Copy URL
G|----------------|----------------|----------------|----------------|----------------|-----------8----|
D|------------13--|-----------8/10-|----------------|----------------|----------11/13-|-------8/10--10-|
A|11--------------|10--------------|8-----11\10-----|8----8-8-----10-|11--------------|10--------------|
E|----------------|----------------|-----------11-8-|----------------|----------------|----------------|

                                         "You know I never..."
G|----------------|----------------|----------------|----------------|-------------8--|----------------|
D|--------------6-|----------------|-------------13-|----------------|---------8/10-10|----------------|
A|8-----------6---|8-8----8----10--|11--------------|10--------------|8---------------|8------8-8----10|
E|----------8-----|----------------|----------------|----------------|----------------|----------------|

        "All this time..." (0:48)
G|----------------|----------------|----------------|----------------|----------------|----------------|
D|------------13--|----------------|----------10--10\8--6----------6-|----------------|----------------|
A|11--------------|10---------11-10|8-----------11--|------8--6-----8|----------------|--------------3-|
E|----------------|----------------|----------------|----------------|----------------|----------------|

"Uh, now I wish..." (1:04)
G|----------------|----------------|----------------|------------8---|----------------|----------------|
D|----------------|-------------8-6|----------------|--------8-6-----|----------------|------------6-6-|
A|4-----------6/8-|6-----------6---|4-----------6/8-|6---------------|-----------6-8--|6---------------|
E|----------------|----------------|----------------|---------------8/9--------------8|----------------|

                                           "You said..." (1:33)
G|----------------|----------------|----------------|----------------|----------------|----------------|
D|----------------|---------5-6-8--|6-----------13--|----------------|-------8\6\5/6/8|----------------|
A|4---------------|6---8-----------|----------------|10----------8/10\8---------------|8-8-----8-8---10|
E|----------------|----------------|----------------|----------------|----------------|----------------|

       "Uh. I never ment..." (1:50)                                                               "Now I..."
G|----------------|----------------|----------------|----------------|----------------|----------------|
D|---------11/13--|----------8/10--|----------10--10\8--6----------6-|----------------|----------------|
A|11--------------|10--------------|8-----------11--|------8--6-----8|----------------|--------------3-|
E|----------------|----------------|----------------|----------------|----------------|----------------|

"Uh, now I know I wish...)
G|----------------|----------------|----------------|------------8---|----------------|----------------|
D|----------------|---------5/6\5--|----------------|--------8-6-----|----------------|----------------|
A|4-----------6/8-|6--------------6|4---------------|6---------------|----------------|6----------10\11|
E|----------------|----------------|----------------|---------------8/9---------------|----------------| 

                                                 "So your..." (2:36)
G|----------------|----------------|--------8-------|-------7/8\7----|-------13-------|----------------|
D|----------------|---------5-6-8--|6---------------|8---------------|----------------|-------8/10\8\6-|
A|4---------------|6---8-----------|----------6-----|--------------8-|11--------------|11-------------8|
E|----------------|----------------|----------------|----------------|----------11----|----------------|

                                    "I'm just waiting..." (2:56)
G|----------------|-----7/8\7------|-------13-------|----------------------------13---|13--------------|
D|6------------6--|6---------------|----------------|----------------------10-13----13|----------13----|
A|---------6------|-------------8--|11--------------|11-----------11-13-11------------|----------------|
E|----------------|----------------|----------11----|---------------------------------|----------------|

     "I never ment to cause..." (3:08)
G|----------------|----------------|----------------|----------------|----------------|
D|------------8/10|-------8\6\5----|----------------|---------11/13--|----------------|
A|10--------------|8-------------6-|8-8----8----10--|11--------------|10--------11\10-|
E|----------------|----------------|----------------|----------------|----------------|

                                                            "Now I..." (3:33)
G|----------------|----------------|----------------|----------------|----------------|----------------|
D|----------10--10\8--6----------6-|----------------|----------------|----------------|--------5/6\5---|
A|8-----------11--|------8--6-----8|----------------|--------------3-|4-----------6/8-|6-------------6-|
E|----------------|----------------|----------------|----------------|----------------|----------------|

"...me"                                   "Uh, yes I..."                "Yes you know..." (3:59)
G|----------------|------------8---|----------------|----------------|----------------|
D|----------------|--------8-6-----|----------------|----------------|----------------|
A|4-----------6/8-|6---------------|----------------|6---------------|4---------------|
E|----------------|---------------8/9---------------|----------------|----------------|

                                                                                   "Just let it..." (4:21)
G|----------------|----------------|----------8-----|---------12-8---|----------------|----------------|
D|---------5-6-8--|6-----------13--|--------10----10|--------------10|----------------|------------13--|
A|6---8-----------|----------------|10--------------|8---------------|8------8-8---10-|11--------------|
E|----------------|----------------|----------------|----------------|----------------|----------------|

                                                                      "Let it rain..." (4:35)
G|----------------|----------------|----------------|----------------|----------------|----------------|
D|----------------|----------10--10\8--6----------6-|----------------|------------13--|----------------|
A|10--------11\10-|8-----------11--|------8--6-----8|-------------10-|11--------------|----------------|
E|----------------|----------------|----------------|----------------|----------------|----------------|

                                                                                       (4:52)
G|--------------------12/13\12---12|10---------13\12\10---------13\12\10--------10-12-|13--------------|
D|---------------10-13--------13---|--------10------|--------10------|----------------|------------13--|
A|10-------------------------------|----------------|----------------|----------------|----------------|
E|---------------------------------|----------------|----------------|----------------|----------------|

                                    (5:03)
G|----------------|----------------|----------------|----------------|----------------|----------------|
D|------------10--|----------------|----------------|----------------|----------------|----------------|
A|10--------------|8-----8-8---10--|11--------------|----------------|----------------|------13\11-----|
E|----------------|----------------|----------------|----------------|----------------|----------------|            
Submit corrections

↑ Back to top | Tablatures and chords for acoustic guitar and electric guitar, ukulele, drums are parodies/interpretations of the original songs. You may use it for private study, scholarship, research or language learning purposes only