Home » P » Pete Seeger »

Pete Seeger - John Browns Body Tabs

Artists:  A B C D E F G H I J K L M N O P Q R S T U V W X Y Z # 

John Browns Body Tabs

(ver. 1) Click to play this song!
Pete Seeger
[VerseKeyC]
   C                                                                               F
E|-------------------|-------------------|-0----0---0--------|-------------------|-------------------|
B|-------------------|----------1---h3---|---------------3---|-1-----------------|---------------0---|
G|-0----0---0--------|------0------------|-------------------|------0--------0---|-2----2---2--------|
D|----------2----3---|-2--------2--------|----------2--------|----------2--------|----------3--------|
A|-3-----------------|-3-----------------|-3-----------------|-3-----------------|-------------------|
E|-------------------|-------------------|-------------------|-------------------|-1-----------------|

                        C
E|-------------------|-------------------|-------------|-------------------|-------------------|
B|-1---p0---1--------|-------------------|-------------|-------------------|----------1---h3---|
G|---------------2---|-0---h2---0--------|-0-----------|-0----0---0--------|------0------------|
D|----------3--------|----------2----2---|-------2-----|----------2----3---|-2--------2--------|
A|-------------------|-3-----------------|-3-----------|-3-----------------|-3-----------------|
E|-1-----------------|-------------------|-------------|-------------------|-------------------|

                      Am                 Dm                 G                  C
E|-0----0---0-------|------------------|------------------|------------------|------------------|-----------|
B|---------------3--|-1--------1----1--|-3--------3-------|-1--------0-------|-1----------------|-----------|
G|------------------|------2-----------|------2--------2--|------0--------0--|------0--------0--|---0----0--|
D|----------2-------|----------2-------|----------0-------|----------0-------|----------2-------|-----2-----|
A|-3----------------|-0----------------|------------------|------------------|-3----------------|-----------|
E|------------------|------------------|-1----------------|-3----------------|------------------|-3---------|


[ChorusKeyC]
   C                                                                            F
E|----------------|-------------------|-0-----------------|-------------------|----------------|
B|----------------|----------1---h3---|-------------------|-1-----------------|------------0---|
G|-0--------------|------0------------|------0--------0---|------0--------0---|-2--------------|
D|-------2----3---|-2--------2--------|----------2--------|----------2--------|-------3--------|
A|-3--------------|-3-----------------|-3-----------------|-3-----------------|----------------|
E|----------------|-------------------|-------------------|-------------------|-1--------------|
   Glo-       ry,   glory,   halle-     lu-                 jah!                Glo-       ry,

                       C
E|-------------------|----------------|-------------|----------------|-------------------|
B|-1---p0---1--------|----------------|-------------|----------------|----------1---h3---|
G|---------------2---|-0--------------|-0-----------|-0--------------|------0------------|
D|----------3--------|-------2----2---|-------2-----|-------2----3---|-2--------2--------|
A|-------------------|-3--------------|-3-----------|-3--------------|-3-----------------|
E|-1-----------------|----------------|-------------|----------------|-------------------|
   glory,   halle-     lu-              jah!          Glo-       ry,   glory,   halle-    

                      Am                 Dm                 G                  C
E|-0----------------|------------------|------------------|------------------|------------------|------------|
B|----------3-------|-1--------1----1--|-3--------3-------|-1--------0-------|-1----------------|------------|
G|------0--------0--|------2-----------|------2--------2--|------0--------0--|------0--------0--|----0----0--|
D|----------2-------|----------2-------|----------0-------|----------0-------|----------2-------|------2-----|
A|-3----------------|-0----------------|------------------|------------------|-3----------------|------------|
E|------------------|------------------|-1----------------|-3----------------|------------------|-3----------|
   lu-                jah!          His  soul     is        mar-     ching     on!
   

[VerseKeyG]

   G                                                                               C
E|-------------------|----------3---/5---|-7----7---7---\5---|-3-----------------|-0----0---0---h2---|
B|-3----3---3---p1---|-0---h3------------|-------------------|-------------------|-------------------|
G|-------------------|-------------------|-------------------|------0--------0---|-------------------|
D|----------0--------|----------0--------|----------0--------|----------0--------|----------2--------|
A|-------------------|-2-----------------|-------------------|-------------------|-3-----------------|
E|-3-----------------|-------------------|-7-----------------|-3-----------------|-------------------|

                       G
E|-3---p2---3---p0---|------0------------|-------------------|-------------------|----------3---/5---|
B|-------------------|-3--------3---p0---|-3-----------------|-3----3---3---p1---|-0---h3------------|
G|-------------------|-------------------|------0--------0---|-------------------|-------------------|
D|----------2--------|----------0--------|-------------------|----------0--------|----------0--------|
A|-3-----------------|-------------------|----------2--------|-------------------|-2-----------------|
E|-------------------|-3-----------------|-3-----------------|-3-----------------|-------------------|

                      Em                 Am                 D                  G
E|-7----7---7---\5--|-3--------3----3--|-5--------5-------|-3-------p2-------|-3----------------|------------|
B|------------------|------------------|------------------|------------------|------------------|------------|
G|------------------|------0--------0--|------5--------5--|------2--------2--|------0--------0--|----0-----0-|
D|----------0-------|----------2-------|----------0-------|----------0-------|----------0-------|-------0----|
A|------------------|-2----------------|-0----------------|-0----------------|------------------|-2----------|
E|-7----------------|------------------|------------------|------------------|-3----------------|------------|


[ChorusKeyG]
   G                                                                               C
E|-------------------|----------3---/5---|-7-----------------|-3-----------------|-0------------h2---|
B|-3------------p1---|-0---h3------------|-------------------|-------------------|-------------------|
G|------0------------|-------------------|------0--------0---|------0--------0---|------0------------|
D|----------0--------|----------0--------|----------0--------|----------0--------|----------2--------|
A|-------------------|-2-----------------|-------------------|-------------------|-3-----------------|
E|-3-----------------|-------------------|-7-----------------|-3-----------------|-------------------|

                       G
E|-3---p2---3---p0---|-------------------|-------------------|-------------------|----------3---/5---|
B|-------------------|-3------------p0---|-3-----------------|-3------------p1---|-0---h3------------|
G|-------------------|------0------------|------0--------0---|------0------------|-------------------|
D|----------2--------|----------0--------|-------------------|----------0--------|----------0--------|
A|-3-----------------|-------------------|----------2--------|-------------------|-2-----------------|
E|-------------------|-3-----------------|-3-----------------|-3-----------------|-------------------|

                      Em                 Am                 D                  G
E|-7----\---5-------|-3--------3----3--|-5--------5-------|-3-------p2-------|-3----------------|------------|
B|------------------|------------------|------------------|------------------|------------------|------------|
G|------0--------0--|------0--------0--|------5--------5--|------2--------2--|------0--------0--|----0-----0-|
D|----------0-------|----------2-------|----------0-------|----------0-------|----------0-------|-------0----|
A|------------------|-2----------------|-0----------------|-0----------------|------------------|-2----------|
E|-7----------------|------------------|------------------|------------------|-3----------------|------------|

            
Submit corrections

↑ Back to top | Tablatures and chords for acoustic guitar and electric guitar, ukulele, drums are parodies/interpretations of the original songs. You may use it for private study, scholarship, research or language learning purposes only