» » »

Pete Seeger - Guantanamera Tabs

Artists:  A B C D E F G H I J K L M N O P Q R S T U V W X Y Z # 

Guantanamera Tabs

(ver. 1) Click to play this song!
Pete Seeger
 Rating:
4/5 (4 votes)
    Guantanamera lessons Tabs too difficult? Try these video lessons and learn fast
                GUANTANAMERA

Original music by Jose Fernandez Diaz (b. ????)
Music adaptation by Pete Seeger (b. 1919)
Lyrics based on a poem by Jose Marti (1855-1895)

Note: This particular score is based on Seeger's performance of the piece
at The Carnegie Hall Concert on June 8, 1963.

Tuning: Drop-D, Down 1/2 Step


Intro/Chorus:

E------3-3-------3-3--------0-0-------0-0-------2-2-------3-3------0-0---|
B------3-3-------3-3--------2-2-------2-2-------3-3-------3-3------2-2---|
G------0-0-------0-0--------2-2-------2-2-------2-2-------0-0------2-2---|
D-----------------------2-2-------2-2-------0-0----------------2-2-------|
A--2-2-------2-2--------0-0-------0-0-------0-0-------2-2------0-0-------|
D--2-2-------2-2--------------------------------------2-2----------------|

   Guantanamera,                    Guajira Guantanmera  ...

E------0-0-------2-2-------3-3-------0-0-------0-0-------2-2-------3-3---|
B------2-2-------3-3-------3-3-------2-2-------2-2-------3-3-------3-3---|
G------2-2-------2-2-------0-0-------2-2-------2-2-------2-2-------0-0---|
D--2-2-------0-0-----------------2-2-------2-2-------0-0-----------------|
A--0-0-------0-0-------2-2-------0-0-------0-0-------0-0-------2-2-------|
D----------------------2-2-------------------------------------2-2-------|

   ...       Guantanamera,                   Guajira Guantanamera  ...


Verse:


E------0-0-------0-0---------2-2-------3-3------0-0------0-0--------2-2---|
B------2-2-------2-2---------3-3-------3-3------2-2------2-2--------3-3---|
G------2-2-------2-2---------2-2-------0-0------2-2------2-2--------2-2---|
D--2-2-------2-2---------0-0----------------2-2------2-2--------0-0-------|
A--0-0-------0-0---------0-0-------2-2------0-0------0-0--------0-0-------|
D----------------------------------2-2------------------------------------|

  ...          Yo soy un hombre sincero  ...           De donde crecen las

E------3-3------0-0-------0-0-------2-2-------3-3------0-0-------0-0------|
B------3-3------2-2-------2-2-------3-3-------3-3------2-2-------2-2------|
G------0-0------2-2-------2-2-------2-2-------0-0------2-2-------2-2------|
D-----------2-2-------2-2-------0-0----------------2-2-------2-2----------|
A--2-2------0-0-------0-0-------0-0-------2-2------0-0-------0-0----------|
D--2-2------------------------------------2-2-----------------------------|

   palmas  ...          Yo soy un hombre sincero ...           De donde

E------2-2-------3-3------0-0-------0-0----------2-2-----3-3------0-0------|
B------3-3-------3-3------2-2-------2-2----------3-3-----3-3------2-2------|
G------2-2-------0-0------2-2-------2-2----------2-2-----0-0------2-2------|
D--0-0----------------2-2-------2-2----------0-0--------------2-2----------|
A--0-0-------2-2------0-0-------0-0----------0-0-----2-2------0-0----------|
D------------2-2-------------------------------------2-2-------------------|

   cre - cen   las palmas ...     Y antes de morirme quiero ...


E------0-0---------2-2-------3-3------0-0------0-0-------------------------|
B------2-2---------3-3-------3-3------2-2------2-2-------------------------|
G------2-2---------2-2-------0-0------2-2------2-2-------------------------|
D--2-2---------0-0----------------2-2------2-2-----------------------------|
A--0-0---------0-0-------2-2------0-0------0-0-----------------------------|
D------------------------2-2-----------------------------------------------|

     Echar mis versos del al  -   ma  ...
            
Submit corrections

↑ Back to top | Tablatures and chords for acoustic guitar and electric guitar, ukulele, drums are parodies/interpretations of the original songs. You may use it for private study, scholarship, research or language learning purposes only