Home » P » Peter Bjorn And John »

Peter Bjorn And John - Second Chance Bass

Artists:  A B C D E F G H I J K L M N O P Q R S T U V W X Y Z # 

Second Chance Bass

(ver. 1) Click to play this song!
Peter Bjorn And John
Main Bass Riff
G-------------------|
D-------------------|
A------3---3---0--0-|
E-0---3---3---3--3--|

Little Fill
G---------|
D---------|
A-0-2-0---|
E-------3-|

"get, this, straight" or Pre-chorus
G-----------------------------|
D-----------------------------|
A----2---3--------------------|
E-3---------------------------|

I think
            
Submit corrections

↑ Back to top | Tablatures and chords for acoustic guitar and electric guitar, ukulele, drums are parodies/interpretations of the original songs. You may use it for private study, scholarship, research or language learning purposes only