Home » P » Peter Bjorn And John »

Peter Bjorn And John - Lay It Down Bass

Artists:  A B C D E F G H I J K L M N O P Q R S T U V W X Y Z # 

Lay It Down Bass

(ver. 1) Click to play this song!
Peter Bjorn And John
STARTS AT 0.15 SECONDS

G---------------------------------------------------------------------|
D------------7-----------7--------------------------------------------|
A--5-5---5-5---5-5---5-5---555555555555-------------------------------|
E------7-----------7--------------------------------------------------|

G---------------------------------------------------------------------|
D------------7-----------7--------------------------------------------|
A--5-5---5-5---5-5---5-5---5-5---5-5----------------------------------|
E------7-----------7-----------7--------------------------------------|

G---------------------------------------------------------------------|
D---------------------------------------------------------------------|
A--5-5--5-5--7-6-5-7-6-5-7-6-555555555555-----------------------------|
E---------------------------------------------------------------------|

G---------------------------------------------------------------------|
D------7-----------7-----------7-----------7--------------------------|
A--5-5---5-5---5-5---5-5---5-5---5-5---5-5---5-5---5555555555555555---|
E------------7-----------7-----------7-----------7--------------------|

G---------------------------------------------------------------------|
D---------------------------------------------------------------------|
A---------------------------------------------------------------------|
E--5~--9~--7~--12~--5~--9~--7~---3~---5~------------------------------|

G---------------------------------------------------------------------|
D---------------------------------------------------------------------|
A---------------------------------------------------------------------|
E--9~--7~--12~--5~--9~--7~---12~---5~--4~--3~-------------------------|

G---------------------------------------------------------------------|
D---------------------------------------------------------------------|
A--------------------7-6-5-7-6-5-7-6-555555555555---------------------|
E--9~--7~--12~--5~----------------------------------------------------|

G---------------------------------------------------------------------|
D-----------7---------------------------------------------------------|
A-------5-5---5-5---5-5-----------------------------------------------|
E--5--5-----------7---------------------------------------------------|


G-----------------------------------------------------------|
D--7-----------7--------------------------------------------|
A----5-5---5-5---5-5---5-5----------------------------------|  PLAY UNTIL END OF SONG
E--------7-----------7--------------------------------------|
            
Submit corrections

↑ Back to top | Tablatures and chords for acoustic guitar and electric guitar, ukulele, drums are parodies/interpretations of the original songs. You may use it for private study, scholarship, research or language learning purposes only