» » »

Peter Bjorn And John - I Just Wanna See Through Tabs

Artists:  A B C D E F G H I J K L M N O P Q R S T U V W X Y Z # 

I Just Wanna See Through Tabs

(ver. 1) Click to play this song!
Peter Bjorn And John
 Rating:
4/5 (4 votes)

 I Just Wanna See Through lessons Tabs too difficult? Try these video lessons and learn fast
 
                (I Just Wanna) See Through
By Peter, Bjorn and John

Guitar tab
Tuning- Standard

Key:
h- hammer
s- slide

intro:

e|----------------------------------------------------------------------|
B|----------------------------------------------------------------------|
G|----------------------------------------------------------------------|
D|--777---7---7---7---4-4-4-4-4-4---------------7---------------------- | x2
A|--777---7---7---7---4-4-4-4-4-4-----------7h9---9-7-------------------|
E|--555---0---5---0---2-0-2-0-2-0-------7h9-----------------------------|

main body:

e|----------------------------------------------------------------------|
B|------------------------------14-14-14---14-14---14-14-14-14-14-------|
G|------------------------------14-14-14---14-14---14-14-14-14-14-------|
D|--------7-9--7-9-7-9-9s11-12--14-14-14---14-14---14-14-14-14-14-------|x2
A|-----7-9----------------------12-12-12---12-12---12-12-12-12-12-------|
E|--7-9-----------------------------------------------------------------|

Pause for bass, drums and vocals.

e|----------------------------------------------------------------------|
B|------------------------------14-14-14---14-14---14-14-14-14-14-------|
G|------------------------------14-14-14---14-14---14-14-14-14-14-------|
D|--------7-9--7-9-7-9-9s11-12--14-14-14---14-14---14-14-14-14-14-------|x2
A|-----7-9----------------------12-12-12---12-12---12-12-12-12-12-------|
E|--7-9-----------------------------------------------------------------|

e|----------------------------------------------------------|
B|-----14----------10---------------------------------------|
G|-----14----------11---------------------------------------|
D|-----14----------11------------------------------7--------|x2
A|-----12----------9---------------------------7h9---9-7----|
E|-----------------------------------------7h9--------------|


e|----------------------------------------------------------------------|
B|------------------------------14-14-14---14-14---14-14-14-14-14-------|
G|------------------------------14-14-14---14-14---14-14-14-14-14-------|
D|--------7-9--7-9-7-9-9s11-12--14-14-14---14-14---14-14-14-14-14-------|x2
A|-----7-9----------------------12-12-12---12-12---12-12-12-12-12-------|
E|--7-9-----------------------------------------------------------------|

e|---------------------------------------------------------------------|
B|---------------------------------------------------------------------|
G|--111111-11-11-11-11-131313-13-141414-14-999-9--9--9--9-9-9-9-9-9-9-9|
D|--111111-11-11-11-11-131313-13-141414-14-999-9--9--9--9-9-9-9-9-9-9-9|x2
A|--9-9-9--9--9--9--9--111111-11-121212-12-777-7--7--7--7-7-7-7-7-7-7-7|
E|---------------------------------------------------------------------|

e|----------------------------------------------------------------------|
B|-14--11-----------------------------14-14-14---14-14---14-14-14-14-14-|
G|-14--11-----------------------------14-14-14---14-14---14-14-14-14-14-|
D|-14--11-------7-9--7-9-7-9-9s11-12--14-14-14---14-14---14-14-14-14-14-|x2
A|-12--9-----7-9----------------------12-12-12---12-12---12-12-12-12-12-|
E|--------7-9-----------------------------------------------------------|

repeat all parts however many times needed.
good catchy song. had to be put on here since i couldnt find a tab anywhere myself. my 
tab but i think its accurate. enjoy!
            
Submit corrections


        I Just Wanna See Through lessons Hard to play? Try these video lessons and learn fast I Just Wanna See Through lessons
        
↑ Back to top | Tablatures and chords for acoustic guitar and electric guitar, ukulele, drums are parodies/interpretations of the original songs. You may use it for private study, scholarship, research or language learning purposes only