Home » P » Peter Bjorn And John »

Peter Bjorn And John - Eyes Tabs

Artists:  A B C D E F G H I J K L M N O P Q R S T U V W X Y Z # 

Eyes Tabs

(ver. 1) Click to play this song!
Peter Bjorn And John
Tuning:   Standard

This is just the intro but if anyone can add on feel free to do so.

e|-------8------8------8-------8---------------------------------------------|
B|----------12-----10------8-------------------------------------------------|
G|--------------------------------9------------------------------------------| X3
D|---------------------------------------------------------------------------|
A|---------------------------------------------------------------------------|
E|---------------------------------------------------------------------------|

e|----12--10-----------------------------------------------------------------|
B|------------13--12--10-----------------------------------------------------|
G|------------------------12--10--9------------------------------------------|
D|---------------------------------------------------------------------------|
A|---------------------------------------------------------------------------|
E|---------------------------------------------------------------------------| 
            
Submit corrections

↑ Back to top | Tablatures and chords for acoustic guitar and electric guitar, ukulele, drums are parodies/interpretations of the original songs. You may use it for private study, scholarship, research or language learning purposes only