Home » P » Peter Bjorn And John »

Peter Bjorn And John - At The Seaside Bass

Artists:  A B C D E F G H I J K L M N O P Q R S T U V W X Y Z # 

At The Seaside Bass

(ver. 1) Click to play this song!
Peter Bjorn And John
It helps if you pluck the strings close to the bridge to give it the sound that he creates. 
Chorus
G----------------------||
D-------754------------||
A------5---------------||
E-------------5---3----||
Verse
G--------------||--------------------||
D--------------||--------------------||
A---10----1010-||---10----1010--10/12||
E--------------||--------------------||
Breakdown
not sure how to designate the timing here, but play it by ear and its easy.
G------------------------||
D------------------------||
A-10101010101010101010---||
E---------------------10-||
Outro
G------------------------||
D------------------------||
A-----------5------------||
E------------------------||
            
Submit corrections

↑ Back to top | Tablatures and chords for acoustic guitar and electric guitar, ukulele, drums are parodies/interpretations of the original songs. You may use it for private study, scholarship, research or language learning purposes only