Home » P » Perry Como »

Perry Como - Catch A Falling Star Tabs

Artists:  A B C D E F G H I J K L M N O P Q R S T U V W X Y Z # 

Catch A Falling Star Tabs

(ver. 1) Click to play this song!
Perry Como
[Intro/Bridge]       (4x)
   G        +       +
E|---------------------------|
B|----------3-------3--------|
G|-0-------------------------|
D|------0---------------0----|
A|---------------------------|
E|-3------------3------------|


[Chorus]             (2x)
                                                              /-----1st pass----\ /------2nd pass--------\
   G  +     +             +     +          D7 +     +          G      +     +      G  +     +     +     +
E|-------------------|-----------------0-|-------------------|-------------------|----3-----1-p0----------|
B|-0--0-----0--0---1-|-3--3-----3--3-----|-3--3-----3--3---1-|-0------3-----3----|-0-----------------3----|
G|-0-----------------|-0-----------------|-2-----------------|-0-----------------|----------------0-----0-|
D|-------0---------0-|-------0---------0-|-------0---------0-|-----0-----------0-|-------0-----------0----|
A|-------------2-----|-------------2-----|-0-----------------|-------------------|-------------2----------|
E|-3-----------------|-3-----------------|-------------2-----|-3---------3-------|-3----------------------|
Catch a falling star and put it in your pocket, never let it fade away.
Catch a falling star and put it in your pocket, save it for a rainy day. 

[Verse]
   C +     +    +     +     +     +     +    +   G +     +    +     +     +  t t t       C +     +    +    +
E|-0---------0-----2--3-|--p2--3-p2--5--\-3----|-----------------0----|----------0-----|-0---------0----2--3-|
B|------4---------------|----------------------|---3--------2-------3-|------0h3---3---|------4--------------|
G|---0-----0----0-------|---------------0----0-|---------0-----0------|---0----------0-|---0-----0----0------|
D|------2----------2----|------2----------2----|------0----------0----|------0-------0-|------2---------2----|
A|-3---------3----------|-3----------0---------|------------2---------|------------2---|-3---------3---------|
E|----------------------|----------------------|-3--------------------|-3--------------|---------------------|
For love may come and tap you on the shoulder,     some    starless night            and just in case you feel
For when your troubles start to multiplyin',       and     they just might.         It's easy      to forget 

      +     +     +     +    G  +     +     +     +    D7 +     +              +     +
E|---p2--3-p2--5--\--3-----|-------------------------|-2-p0---------------|-10p8-p7-------------|
B|-------------------------|----3--------2-----3-----|-------3-p1--0------|----------10-8---7---|
G|----------------0-----0--|----------0-----0-----0--|-----------------2--|---------------------|
D|-------2-----------2-----|-------0-----------0-----|-------0---------0--|-------0---------0---|
A|-3-----------0-----------|-------------2-----------|-0------------------|-0-----------0-------|
E|-------------------------|-3-----------------------|-------------2------|---------------------|
      you want to hold her,     you'll   have  a       pocketful of starlight.
      them without tryin',      with     just  a       pocketful of starlight

[ChorusEnhanced]      (2x)
                                                                       /--1st pass----\ /---2nd pass--------\
   G  +   +     +     +      +   +     +     +   D7 +   +     +     +   G    +    +        +   +     +     +
E|----------------------|-----------------0----|----------------------|----------------|---3---1-p0----------|
B|-0--0---0--0-----1----|-3--3---3--3----------|-3--3---3--3-----1-p0-|------3----3----|----------------3----|
G|-0------------0-----0-|-0------------0-----0-|-2------------2-------|-0--------------|-------------0-----0-|
D|------0----------0----|------0----------0----|------0----------0----|----0---------0-|-----0----------0----|
A|-----------2----------|-----------2----------|-0--------------------|----------------|----------2----------|
E|-3--------------------|-3--------------------|-----------2----------|-3-------3------|-3-------------------|

[Verse]

[Chorus]                   

[Outro]             
Submit corrections

↑ Back to top | Tablatures and chords for acoustic guitar and electric guitar, ukulele, drums are parodies/interpretations of the original songs. You may use it for private study, scholarship, research or language learning purposes only