Home » P » Pentangle »

Pentangle - I've Got A Feeling Tabs

Artists:  A B C D E F G H I J K L M N O P Q R S T U V W X Y Z # 

I've Got A Feeling Tabs

(ver. 1) Click to play this song!
Pentangle
Standard Tuning
Capo 3

E Riff 1 (I tried to sync up Bert and John’s parts here.)
Bert’s Part
e-------0-------------------------|
B-------------0---------0-----0---|
G---0h1---2-4---2---0h1---2-4---2-|
D---------------------------------|
A---2-----4-5---4---2-----4-5---4-|
E-0---------------0---------------|
John’s Part
e---------------------------------|
B---0-----2-3---2---0-----2-3---2-|
G---1-----2-4---2---1-----2-4---2-|
D---------------------------------|
A---------------------------------|
E---------------------------------|

E Riff 2
e-------2p0---0-------------------------|
B-----------3-------0---------0-----0---|
G---0h1---------2-4---2---0h1---2-4---2-|
D---------------------------------------|
A---2-----------4-5---4---2-----4-5---4-|
E-0---------------------0---------------|


Em Riff (Again, Bert and John’s parts synced up. The third
bar of tabs is something he does during the bass solo.)
Bert’s Part
e------------------------------------------------------------|
B-----0----------------------------------------------------0-|
G---0----2-4-------0h1-2-4-------0h1-2-4-------0h1p0h1-2-4---|
D------------5-2-----------5-2-----------5-2-----------------|
A---2----4-5-------2---4-5-------2---4-5-------2-------4-5---|
E-0--------------0-------------0-------------0---------------|
John’s Part
e---0----2-3---5---3---2-0---2-------------------------------|
B--------------------------------0-----2-3---2---0-----2-3-2-|
G---0----2-4---6---4---2-0---2---1-----2-4---2---1-----2-4-2-|
D------------------------------------------------------------|
A------------------------------------------------------------|
E------------------------------------------------------------|
Extra thing John does during bass solo
e--------------------------------7-----9-10--9---7-----9-10-|
B-----------------------------------------------------------|
G--------------------------------7-----9-11--9---7-----9-11-|
D-----------------------------------------------------------|
A-----------------------------------------------------------|
E-----------------------------------------------------------|

  B7#9            C7#9    B7#9
e---------------------------------|
B---3---3---3---3---4---4---3---3-|
G---2---2---2---2---3---3---2---2-|
D---1---1---1---1---2---2---1---1-|
A-2---2---2---2---3---3---2---2---|
E---------------------------------|

Intro: E Riff 1 (Bert’s Part only.)

E Riff 2
I got a feeling
E Riff 2
Concerning you
Em Riff (Bert’s Part only.)
You know I got a feeling
Concerning you
   B7#9        C7#9 B7#9     E Riff 1
Concerning the things... you do

E Riff (Both Parts)
I ain’t dreaming
When I think of you
Em Riff (Both Parts)
You know I ain’t dreaming
When I think of you
       B7#9     C7#9  B7#9       E Riff 1
When I think of what... we gonna do

Oooh Verse

2X Instrumental Verse (Bass Solo)

I got a feeling
Concerning you
You know I got a feeling
Concerning you
Concerning the things you do

Oooh Verse

Instrumental (fade out)            
Submit corrections

↑ Back to top | Tablatures and chords for acoustic guitar and electric guitar, ukulele, drums are parodies/interpretations of the original songs. You may use it for private study, scholarship, research or language learning purposes only