» » »

Peggy Lee - Why Dont You Do Right Tabs

Artists:  A B C D E F G H I J K L M N O P Q R S T U V W X Y Z # 

Why Dont You Do Right Tabs

(ver. 1) Click to play this song!
Peggy Lee
 Rating:
4/5 (4 votes)

 Why Dont You Do Right  lessons Tabs too difficult? Try these video lessons and learn fast
 
                                Starts at 1:13

Tuning: Standard

e|---------------------------------------------------------------------------|
B|-----------------18--18--18--18--18--18--18--18--18\15--15-----------------|
G|--12h13-------------------------------------------------------14-----------|
D|---------------------------------------------------------------------15\12-|
A|---------------------------------------------------------------------------|
E|---------------------------------------------------------------------------|

e|---------------------------------------------------------------------------|
B|---------------------------------------------------------------------------|
G|---------------13p12-------------------------------------------------------|
D|-15---15-------------------------------------------------------------------|
A|---------------------------------------------------------------------------|
E|---------------------------------------------------------------------------|

e|---------------------------------------------------------------------------|
B|------------18--17--15/13---11hp13--------13------11-----------------------|
G|--11h12/-14--------------------------14-----------------14---12------------|
D|---------------------------------------------------------------------------|
A|---------------------------------------------------------------------------|
E|---------------------------------------------------------------------------|

e|---------------------------------------------------------------------------|
B|---------------------------------------------------------------------------|
G|--10-------10/12\10----------9---10----------------------------------------|
D|--------------------------------------12-----------------------------------|
A|---------------------------------------------------------------------------|
E|---------------------------------------------------------------------------|

e|---------------------------------------------------------------------------|
B|---------------------------------------------------------------------------|
G|-------10h12--13--10------------------------10----12\----------10-12-9-----|
D|--12------------------12\--------------12------------------12----------11--|
A|-------------------------------------------------------------------------12|
E|---------------------------------------------------------------------------|

e|---------------------------------------------------------------------------|
B|---------------------------------------------------------------------------|
G|----------9---10-------12hpb13----10------13----10-----13/14---10---9------|
D|--11h12---------------------------------------------------------------12~--|
A|---------------------------------------------------------------------------|
E|---------------------------------------------------------------------------|            
Submit corrections


        Why Dont You Do Right  lessons Hard to play? Try these video lessons and learn fast Why Dont You Do Right  lessons
        
↑ Back to top | Tablatures and chords for acoustic guitar and electric guitar, ukulele, drums are parodies/interpretations of the original songs. You may use it for private study, scholarship, research or language learning purposes only