» » »

Peggy Lee - Hes A Tramp Tabs

Artists:  A B C D E F G H I J K L M N O P Q R S T U V W X Y Z # 

Hes A Tramp Tabs

(ver. 1) Click to play this song!
Peggy Lee
 Rating:
4.3/5 (10 votes)

 Hes A Tramp  lessons Tabs too difficult? Try these video lessons and learn fast
 
                Tuning: Standard
e|--------------------------------------------------|
B|-0-----0-----0------3-0-1-3-----3-0-1-------------|
G|---0-2---0-2--------------------------------------|
D|--------------------------------------------------|
A|--------------------------------------------------|
E|--------------------------------------------------|

He's a tramp but I love him
Breaks a new heart, every day

e|2-0-2--2-0-2p0--------------------------|
B|--------------3-----0-------------------|
G|---------------------0-2-0-2-3-2-0-0----|
D|----------------------------------------|
A|----------------------------------------|
E|----------------------------------------|
He's a tramp, I adore him
And I only hope he'll stay that way

e|--------------------------------------------------|
B|-0-----0-----0------3-0-1-3-----3-0-1-------------|
G|---0-2---0-2--------------------------------------|
D|--------------------------------------------------|
A|--------------------------------------------------|
E|--------------------------------------------------|
He's a tramp, he's a scoundrel,
He's a rounder, he's a cad.

e|2-0-2--2-0-2p0--------------------------|
B|--------------3-----0-------------------|
G|----------------------3-0-2-3-2-0-0---0-|
D|------------------------------------2---|
A|----------------------------------------|
E|----------------------------------------|
He's a tramp, but I love him.
Yes, and even I have got it pretty bad.

e|---------------------------------------------------------------------------|
B|---------------------------------------------------------------------------|
G|-2-0-2-3-2-----0-2-3-2------0-2-4-7-5-4-7-5--------------------------------|
D|---------------------------------------------------------------------------|
A|---------------------------------------------------------------------------|
E|---------------------------------------------------------------------------|
You can never tell when he'll show up.
He gives you plenty of trouble.

e|---------------------------------------------------------------------------|
B|-0------------------------------------1------------------------------------|
G|---3-0-2-0-2-3-2--------7-5-3-2-0-2-3--------------------------------------|
D|---------------------------------------------------------------------------|
A|---------------------------------------------------------------------------|
E|---------------------------------------------------------------------------|
 guess he's just a no account pup,
But I wish that he were double.

e|---------2-0-2----------------------------------------------------------|
B|-0-------------3------3-0-1-3-3-0-1-------------------------------------|
G|--0-2-------------------------------------------------------------------|
D|------------------------------------------------------------------------|
A|------------------------------------------------------------------------|
E|------------------------------------------------------------------------|
He's a tramp, he's a rover,
And there's nothing more to say.

e|-0-2-0-2---2-2-2-0----------------------------------------------------------|
B|-------------------3-------0------------------------------------------------|
G|-----------------------------0-2-0-2-3-2-0-0--------------------------------|
D|----------------------------------------------------------------------------|
A|----------------------------------------------------------------------------|
E|----------------------------------------------------------------------------|
If he's a tramp, he's a good one,
And I wish that I could travel his way.            
Submit corrections


        Hes A Tramp  lessons Hard to play? Try these video lessons and learn fast Hes A Tramp  lessons
        
↑ Back to top | Tablatures and chords for acoustic guitar and electric guitar, ukulele, drums are parodies/interpretations of the original songs. You may use it for private study, scholarship, research or language learning purposes only