» » »

Peggy Lee - Bella Notte Tabs

Artists:  A B C D E F G H I J K L M N O P Q R S T U V W X Y Z # 

Bella Notte Tabs

(ver. 1) Click to play this song!
Peggy Lee
 Rating:
4.3/5 (27 votes)

 Bella Notte lessons Tabs too difficult? Try these video lessons and learn fast
 
                [Intro]
e|-0--------0----------------------------------------------------------------|
B|-------3-----3-----1--0--3-----1--3--1--------0--1-----0--3-----0----------|
G|-------------------------------------------2-----------------------2----0--|
D|---------------------------------------------------------------------------|
A|---------------------------------------------------------------------------|
E|---------------------------------------------------------------------------|

e|---------------------------------------------------------------------------|
B|-3-----1--3--1--------0--1-----0--1--0--------------------1-----0----------|
G|-------------------2-----------------------2--0--2-----2-----------2----0--|
D|---------------------------------------------------------------------------|
A|---------------------------------------------------------------------------|
E|---------------------------------------------------------------------------|

[Verse]
e|-3--3--3-----------1--3--1---1-----------0---0---0-------0-----------------|
B|-------------------------------------1---------------1---------------------|
G|------------------------------------------------------------------------2--|
D|---------------------------------------------------------------------------|
A|---------------------------------------------------------------------------|
E|---------------------------------------------------------------------------|

e|-0-------------------------------------------------------------------------|
B|-----3---1---0---3---3--0---------1--0-----------0---1---3-------4---------|
G|-----------------------------------------2---2-----------------------------|
D|---------------------------------------------------------------------------|
A|---------------------------------------------------------------------------|
E|---------------------------------------------------------------------------|

e|-0----------0--------------3-----1--3--1--------0--1-------0-----0---------|
B|---------3-----3-----0--1--------------------4----------2-----------3---1--|
G|---------------------------------------------------------------------------|
D|---------------------------------------------------------------------------|
A|---------------------------------------------------------------------------|
E|---------------------------------------------------------------------------|            
Submit corrections


        Bella Notte lessons Hard to play? Try these video lessons and learn fast Bella Notte lessons
        
↑ Back to top | Tablatures and chords for acoustic guitar and electric guitar, ukulele, drums are parodies/interpretations of the original songs. You may use it for private study, scholarship, research or language learning purposes only