» » »

Pearl Jam - Tremor Christ Chords

Artists:  A B C D E F G H I J K L M N O P Q R S T U V W X Y Z # 

Tremor Christ Chords

(ver. 1) Click to play this song!
Pearl Jam
 Rating:
4/5 (4 votes)
                --9h11~~~~--10-------9h11~~~~~~------9h11~~~~--10---------9h11~~~~~~~------



              bend and shake the note one full step up
--------------------------------------
--------------------------------------
--------------------------------------
--9h11~~~~~~-------9h11~~~^(12)-------   and on... (you get the idea)
-------------------------------------
--------------------------------------


 

Arpeggio


--------------------------------------------------
-------8-------8-----8-------7------7----7--------
-----8-------8-------------7------7---------------
---7-------7------7------6------6-----6-----------  and on...
--------------------------------------------------
--------------------------------------------------





At about 2:00, the guitars go back to the original intro chords, except this
time they leave out one of the notes to get something like this:




slightly palm mute...

--------------
--------------
--------------
--11---------- x 8 times
--------------
--------------


--------------
--------------
--------------
--10---------- x 8 times
--------------
--------------



Just finish the song out as needed with the above.  One note about the 'solo':  
the solo is identical to the played arpeggio as noted above, but you will
want to slide up to the first note of the arpeggio and bend the last note
played.
            
Submit corrections

↑ Back to top | Tablatures and chords for acoustic guitar and electric guitar, ukulele, drums are parodies/interpretations of the original songs. You may use it for private study, scholarship, research or language learning purposes only