Home » P » Pearl Jam »

Pearl Jam - Comatose Bass

Artists:  A B C D E F G H I J K L M N O P Q R S T U V W X Y Z # 

Comatose Bass

(ver. 1) Click to play this song!
Pearl Jam
Intro [00:00]
G|----------------|----------------|----------------|
D|----------------|----------------|----------------|
A|5-----5---------|5---------------|5-----5---------|
E|---5------------|---5--0---------|---5------------|

Verse 1 [00:18]
G|----------------|----------------|----------------|----------------|
D|----------------|----------------|----------------|----------------|
A|-----7-6--------|-----7-6--------|-----7-6--------|-----7-6--------|
E|7-7-7----66-6-6-|7-7-7----66-6-6-|7-7-7----66-6-6-|7-7-7----66-6-6-|

Chorus 2 [00:27]
G|----------------|----------------|----------------|----------------|
D|----------------|----------------|----------------|----------------|
A|5-----5---5-5-5-|5---------7-7-7-|5-----5---5-5-5-|----------------|
E|---5------------|---5--0---------|---5------------|2222222222333333|

Pre-Verse 2 [00:37]
G|----------------|----------------|----------------|----------------|
D|----------------|--------/888886-|----------------|--------/888886-|
A|----- 76--------|------76-------8|------76--------|------76-------8|
E|777777---6666666|777777----------|777777---6666666|777777----------|

Verse 2 [00:47]
G|----------------|----------------|----------------|----------------|
D|----------------|----------------|----------------|----------------|
A|-----7-6--------|-----7-6--------|-----7-6--------|-----7-6--------|
E|7-7-7----66-6-6-|7-7-7----66-6-6-|7-7-7----66-6-6-|7-7-7----66-6-6-|

Chorus 2 [00:56]
G|----------------|----------------|----------------|----------------|
D|----------------|----------------|----------------|----------------|
A|5-----5---5-5-5-|5---------7-7-7-|5-----5---5-5-5-|----------------|
E|---5------------|---5--0---------|---5------------|2222222222333333|

G|----------------|----------------|----------------|
D|----------------|----------------|----------------|
A|5-----5---5-5-5-|5---------7-7-7-|5-----5---5-5-5-|
E|---5------------|---5--0---------|---5------------|

Brigde [01:13]
G|----------------|----------------|----------------|----------------|
D|----------------|----------------|----------------|----------------|
A|----------------|----------------|----------------|----------------|
E|222x33x5-5555555|222x33x5-5555555|000x11x3-3333333|000x11x3-3333333|

G|----------------|----------------|----------------|----------------|
D|----------------|----------------|----------------|----------------|
A|----------------|----------------|5---------------|5---------------|
E|222x33x5-5555555|222x33x5-5555555|----------------|----------------|

Solo [01:33]
G|----------------|----------------|----------------|----------------|
D|----------------|--------/888886-|----------------|--------/888886-|
A|----- 76--------|------76-------8|------76--------|------76-------8|
E|777777---6666666|777777----------|777777---6666666|777777----------|

Verse 3 [01:43]
G|----------------|----------------|----------------|----------------|
D|----------------|----------------|----------------|----------------|
A|-----7-6--------|-----7-6--------|-----7-6--------|-----7-6--------|
E|7-7-7----66-6-6-|7-7-7----66-6-6-|7-7-7----66-6-6-|7-7-7----66-6-6-|

Chorus 3 [01:52]
G|----------------|----------------|----------------|----------------|
D|----------------|----------------|----------------|----------------|
A|5-----5---5-5-5-|5---------7-7-7-|5-----5---5-5-5-|----------------|X2
E|---5------------|---5--0---------|---5------------|2222222222333333|

Outro [02:12]
G|----------------|
D|----------------|
A|5-----5---------|
E|---5------------|
            
Submit corrections

↑ Back to top | Tablatures and chords for acoustic guitar and electric guitar, ukulele, drums are parodies/interpretations of the original songs. You may use it for private study, scholarship, research or language learning purposes only