» » »

Pearl Jam - Cant Deny Me Tabs

Artists:  A B C D E F G H I J K L M N O P Q R S T U V W X Y Z # 

Cant Deny Me Tabs

(ver. 1) Click to play this song!
Pearl Jam
 Rating:
4.3/5 (25 votes)

 Cant Deny Me lessons Tabs too difficult? Try these video lessons and learn fast
 
                [Intro] Drums
e|----------------------------------------------------------------------------|
B|----------------------------------------------------------------------------|
G|----------------------------------------------------------------------------|
D|-------------------------7-7-7--8--5--7-7-7------5/7-7-7--8--5--7-7-7-------|
A|-------------------------5-5—5--6--3--5-5-5------3/5-5-5--6--3--5-5-5-------|
E|----------------------------------------------------------------------------|
    And now you want me to breathe

[Verse]
e|------------------------------|
B|------------------------------|
G|------------------------------|
D|-------5/7-7-7--8--5--7-7-7---|
A|-------3/5-5-5--6--3--5-5-5---|
E|------------------------------|

[At: “we’re just the same you and me”]
e|--------------------------------------|
B|--------------------------------------|
G|--------------------------------------|
D|-------5/7-7-7--8--10—-5/7-7-7-7------|
A|-------3/5-5-5--6--8---3/5-5-5-5------|
E|--------------------------------------|

[Chorus]
e|------------------------------------------------------------------|
B|------------------------------------------------------------------|
G|------------------------------------------------------------------|
D|-----------------------------5/7-7-7-7--10-10-9-------------------|
A|--5/7-7-7-7—(7)--7-7-7-7-----3/5-5-5-5--8--8--7-10----------------|
E|--3/5-5-5-5--0---5-5-5-5------------------------8-----------------|
The higher, the farther, the faster you fly / You may be rich but you can't deny me

[Verse]
e|------------------------------|
B|------------------------------|
G|------------------------------|
D|-------5/7-7-7--8--5--7-7-7---|
A|-------3/5-5-5--6--3--5-5-5---|
E|------------------------------|

[Added lead: Gossard]
e|--------8~----------------------|
B|------6----6~~~~----------------|
G|----/7--------------------------|
D|--------------------------------|
A|--------------------------------|
E|--------------------------------|

[Chorus]
e|------------------------------------------------------------------|
B|------------------------------------------------------------------|
G|------------------------------------------------------------------|
D|-----------------------------5/7-7-7-7--10-10-9-------------------|
A|--5/7-7-7-7—(7)--7-7-7-7-----3/5-5-5-5--8--8--7-10----------------|
E|--3/5-5-5-5--0---5-5-5-5------------------------8-----------------|
The higher, the farther, the faster you fly / You may be rich but you can't deny me

[Chorus] clap only
You can’t deny me.. You can’t deny me… you can’t define me

[Chorus]
e|------------------------------------------------------------------|
B|------------------------------------------------------------------|
G|------------------------------------------------------------------|
D|-----------------------------5/7-7-7-7--10-10-9-------------------|
A|--5/7-7-7-7—(7)--7-7-7-7-----3/5-5-5-5--8--8--7-10----------------|
E|--3/5-5-5-5--0---5-5-5-5------------------------8-----------------|
The higher, the farther, the faster you fly / You may be rich but you can't deny me            
Submit corrections


        Cant Deny Me lessons Hard to play? Try these video lessons and learn fast Cant Deny Me lessons
        
↑ Back to top | Tablatures and chords for acoustic guitar and electric guitar, ukulele, drums are parodies/interpretations of the original songs. You may use it for private study, scholarship, research or language learning purposes only