» » »

Pearl Jam - 10 Billion Years Tabs

Artists:  A B C D E F G H I J K L M N O P Q R S T U V W X Y Z # 

10 Billion Years Tabs

(ver. 1) Click to play this song!
Pearl Jam
 Rating:
4.3/5 (15 votes)

 10 Billion Years  lessons Tabs too difficult? Try these video lessons and learn fast
 
                [mainly with this on Acoustic]     
   Before C     Before G
e|-----------|---------------|
B|-----------|---------------|
G|--------0--|---------------|
D|--------2--|---------0-----|
A|----0-2-3--|---3-2-0-2-----|
E|--3--------|---------3-----|

[Electric fills]
  0:13           0:28              0:50          0:59
e|--3vv--------|----3------5p3---|----5p3------|----10p8----------|
B|--3vv---3----|--3---3--3----3--|--3-----3-3--|--8------8-8------|
G|-------------|-----------------|-------------|--------------7v--|
D|-------------|-----------------|-------------|------------------|
A|-------------|-----------------|-------------|------------------|
E|-------------|-----------------|-------------|------------------|

[Lead guitar at 2:02]
e|---------7-8-7----7vv--|---------------------10vv---|
B|--8-8-10-------10------|--10-10--12-13-12-10--------|
G|-----------------------|----------------------------|
D|-----------------------|----------------------------|
A|-----------------------|----------------------------|
E|-----------------------|----------------------------|

e|---------7v-8v-7v----------------7-8-10vv--|-----------|
B|--8v-10v----------10v-8v------10-----------|--8--------|
G|-------------------------------------------|-----7vv---|
D|-------------------------------------------|-----------|
A|-------------------------------------------|-----------|
E|-------------------------------------------|-----------|

[Mid Solo, at 3:29]
e|----------------|------------------------|
B|----------------|------------------------|
G|------7---------|--------------5---------|
D|--7h9---9p7-5v--|--7b-7b--7br5-----------|
A|----------------|------------------------|
E|----------------|------------------------|

e|------7----7-----7------7---------------7---|
B|--------------------------------------------|
G|--------------------------------------------|
D|---7----7-----7-----7-------7/5---5/7-7-----|
A|--------------------------------------------|
E|--------------------------------------------|

e|--15------|------------------------------|---------------------|-------------|
B|-----15b--|------------------------------|--15b17r15--13-12vv--|-------------|
G|----------|------------------------------|---------------------|--12vv-------|
D|----------|--14b---14b---14b---14b-12vv--|---------------------|-------12vv--|
A|----------|------------------------------|---------------------|-------------|
E|----------|------------------------------|---------------------|-------------|

[Outro Solo] 5:14, with thumb + index fingers,
repeat each couple of two notes, as necessary:

   repeat    transition   repeat   repeat
e|--15-----|--17--------|--8-----|--15-----|
B|-----15--|-----17-----|----8---|-----15--|
G|---------|------------|--------|---------|
D|---------|------------|--------|---------|  X 3 times
A|---------|------------|--------|---------|
E|---------|------------|--------|---------|

[the ending]
e|--15-----|--15-----|--15------|
B|-----15--|-----13--|------12--|
G|---------|---------|----------|
D|---------|---------|----------|
A|---------|---------|----------|
E|---------|---------|----------|            
Submit corrections


        10 Billion Years  lessons Hard to play? Try these video lessons and learn fast 10 Billion Years  lessons
        
↑ Back to top | Tablatures and chords for acoustic guitar and electric guitar, ukulele, drums are parodies/interpretations of the original songs. You may use it for private study, scholarship, research or language learning purposes only