Home » P » Paul Baribeau »

Paul Baribeau - The Wall Tabs

Artists:  A B C D E F G H I J K L M N O P Q R S T U V W X Y Z # 

The Wall Tabs

(ver. 1) Click to play this song!
Paul Baribeau
 0:02
e|--------------------------------------------------|
B|--------------------------------------------------|
G|-9-7---------------9-7----------------------------|
D|-----9-7-5-0-----------9-7-5-0--------------------|
A|-------------7~----------------7~----7-5----------|
E|-----------------------------------------7-5-3b-0-|


 0:55
e|-------------------------------------------------------------|
B|-------------------------------------------------------------|
G|-9-7---------------9-7---------------------------------------|
D|-----9-7-5-0-----------9-7-5-0-------5/7/9--9\7--7/10--10/12-|
A|-------------7~----------------7~----------------------------|
E|-------------------------------------------------------------|


 1:34
e|----------------------------------|
B|----------------------------------|
G|-9-7---------------9-7------------|
D|-----9-7-5-0-----------9-7-5-0----|
A|-------------7~----------------7~-|
E|----------------------------------|            
Submit corrections

↑ Back to top | Tablatures and chords for acoustic guitar and electric guitar, ukulele, drums are parodies/interpretations of the original songs. You may use it for private study, scholarship, research or language learning purposes only