» » »

Paul Baloche - Open The Eyes Of My Heart Tabs

Artists:  A B C D E F G H I J K L M N O P Q R S T U V W X Y Z # 

Open The Eyes Of My Heart Tabs

(ver. 1) Click to play this song!
Paul Baloche
 Rating:
4.1/5 (31 vote)

 Open The Eyes Of My Heart lessons Tabs too difficult? Try these video lessons and learn fast
 
                [Intro & Verse]
   E5             /D#              A2/C#   A2      E5
e|-0-----|-0-----|-0-----|-0-----|-0-----|-0-----|-0-----|-0-----|
B|-0-----|-0-----|-0-----|-0-----|-0-----|-0-----|-0-----|-0-----|
G|-9-----|-9-----|-8-----|-8-----|-6-----|-6-----|-9-----|-9-----|
D|-9-----|-9-----|-9-----|-9-----|-7-----|-7-----|-9-----|-9-----|
A|-7-----|-7-----|-6-----|-6-----|-4-----|-------|-7-----|-7-----|
E|-------|-------|-------|-------|-------|-5-----|-------|-------|

   E5             /D#              A2/C#   A2      E5
e|-0-----|-0-----|-0-----|-0-----|-0-----|-0-----|-0-----|-0-----||
B|-0-----|-0-----|-0-----|-0-----|-0-----|-0-----|-0-----|-0-----||
G|-9-----|-9-----|-8-----|-8-----|-6-----|-6-----|-9-----|-9-----||
D|-9-----|-9-----|-9-----|-9-----|-7-----|-7-----|-9-----|-9-----||
A|-7-----|-7-----|-6-----|-6-----|-4-----|-------|-7-----|-7-----||
E|-------|-------|-------|-------|-------|-5-----|-------|-------||

[Chorus]
   Bsus    C#m7    A2      Bsus            C#m7    D2
e|-0-----|-0-----|-0-----|-0-----|-0-----|-0-----|-5-----|-5-----|
B|-0-----|-0-----|-0-----|-0-----|-0-----|-0-----|-5-----|-5-----|
G|-4-----|-6-----|-2-----|-4-----|-4-----|-6-----|-7-----|-7-----|
D|-4-----|-6-----|-2-----|-4-----|-4-----|-6-----|-7-----|-7-----|
A|-2-----|-4-----|-0-----|-2-----|-2-----|-4-----|-5-----|-5-----|
E|-------|-------|-------|-------|-------|-------|-------|-------|

   E2
e|-7-----|-7-----||
B|-7-----|-7-----||
G|-9-----|-9-----||
D|-9-----|-9-----||
A|-7-----|-7-----||
E|-------|-------||

[Verse]
   E5             /D#              A2/C#   A2      E5
e|-0-----|-0-----|-0-----|-0-----|-0-----|-0-----|-0-----|-0-----|
B|-0-----|-0-----|-0-----|-0-----|-0-----|-0-----|-0-----|-0-----|
G|-9-----|-9-----|-8-----|-8-----|-6-----|-6-----|-9-----|-9-----|
D|-9-----|-9-----|-9-----|-9-----|-7-----|-7-----|-9-----|-9-----|
A|-7-----|-7-----|-6-----|-6-----|-4-----|-------|-7-----|-7-----|
E|-------|-------|-------|-------|-------|-5-----|-------|-------|

   E5             /D#              A2/C#   A2      E5
e|-0-----|-0-----|-0-----|-0-----|-0-----|-0-----|-0-----|-0-----||
B|-0-----|-0-----|-0-----|-0-----|-0-----|-0-----|-0-----|-0-----||
G|-9-----|-9-----|-8-----|-8-----|-6-----|-6-----|-9-----|-9-----||
D|-9-----|-9-----|-9-----|-9-----|-7-----|-7-----|-9-----|-9-----||
A|-7-----|-7-----|-6-----|-6-----|-4-----|-------|-7-----|-7-----||
E|-------|-------|-------|-------|-------|-5-----|-------|-------||

[Chorus]
   Bsus    C#m7    A2      Bsus            C#m7    A2      Bsus
e|-0-----|-0-----|-0-----|-0-----|-0-----|-0-----|-0-----|-0-----|
B|-0-----|-0-----|-0-----|-0-----|-0-----|-0-----|-0-----|-0-----|
G|-4-----|-6-----|-2-----|-4-----|-4-----|-6-----|-2-----|-4-----|
D|-4-----|-6-----|-2-----|-4-----|-4-----|-6-----|-2-----|-4-----|
A|-2-----|-4-----|-0-----|-2-----|-2-----|-4-----|-0-----|-2-----|
E|-------|-------|-------|-------|-------|-------|-------|-------|

   Bsus    C#m7    A2      Bsus            C#m7    D2
e|-0-----|-0-----|-0-----|-0-----|-0-----|-0-----|-5-----|-5-----|
B|-0-----|-0-----|-0-----|-0-----|-0-----|-0-----|-5-----|-5-----|
G|-4-----|-6-----|-2-----|-4-----|-4-----|-6-----|-7-----|-7-----|
D|-4-----|-6-----|-2-----|-4-----|-4-----|-6-----|-7-----|-7-----|
A|-2-----|-4-----|-0-----|-2-----|-2-----|-4-----|-5-----|-5-----|
E|-------|-------|-------|-------|-------|-------|-------|-------|

   E2
e|-7-----|-7-----||
B|-7-----|-7-----||
G|-9-----|-9-----||
D|-9-----|-9-----||
A|-7-----|-7-----||
E|-------|-------||

[Interlude (sax solo)]
   F2              C/E             Bb/D    Bb2     F2      C9sus
e|-8-----|-8-----|-8-----|-8-----|-6-----|-1-----|-8-----|-3-----|
B|-8-----|-8-----|-8-----|-8-----|-6-----|-1-----|-8-----|-3-----|
G|-10----|-10----|-9-----|-9-----|-7-----|-3-----|-10----|-3-----|
D|-10----|-10----|-10----|-10----|-8-----|-3-----|-10----|-3-----|
A|-8-----|-8-----|-10----|-10----|-8-----|-1-----|-8-----|-3-----|
E|-------|-------|-------|-------|-------|-------|-------|-------|

[Outro]
   F2              C/E             Bb/D    Bb2     F2      C9sus
e|-8-----|-8-----|-8-----|-8-----|-6-----|-1-----|-8-----|-3-----|
B|-8-----|-8-----|-8-----|-8-----|-6-----|-1-----|-8-----|-3-----|
G|-10----|-10----|-9-----|-9-----|-7-----|-3-----|-10----|-3-----|
D|-10----|-10----|-10----|-10----|-8-----|-3-----|-10----|-3-----|
A|-8-----|-8-----|-10----|-10----|-8-----|-1-----|-8-----|-3-----|
E|-------|-------|-------|-------|-------|-------|-------|-------|

   F2              C/E             Bb/D    Bb2     F2      C9sus
e|-8-----|-8-----|-8-----|-8-----|-6-----|-1-----|-8-----|-3-----|
B|-8-----|-8-----|-8-----|-8-----|-6-----|-1-----|-8-----|-3-----|
G|-10----|-10----|-9-----|-9-----|-7-----|-3-----|-10----|-3-----|
D|-10----|-10----|-10----|-10----|-8-----|-3-----|-10----|-3-----|
A|-8-----|-8-----|-10----|-10----|-8-----|-1-----|-8-----|-3-----|
E|-------|-------|-------|-------|-------|-------|-------|-------|

   F2              C/E             Bb/D    Bb2     F2      C9sus
e|-8-----|-8-----|-8-----|-8-----|-6-----|-1-----|-8-----|-3-----|
B|-8-----|-8-----|-8-----|-8-----|-6-----|-1-----|-8-----|-3-----|
G|-10----|-10----|-9-----|-9-----|-7-----|-3-----|-10----|-3-----|
D|-10----|-10----|-10----|-10----|-8-----|-3-----|-10----|-3-----|
A|-8-----|-8-----|-10----|-10----|-8-----|-1-----|-8-----|-3-----|
E|-------|-------|-------|-------|-------|-------|-------|-------|

   F2              C/E             Bb/D    Bb2     Eb2     Dm7
e|-8-----|-8-----|-8-----|-8-----|-6-----|-1-----|-6-----|-5-----|
B|-8-----|-8-----|-8-----|-8-----|-6-----|-1-----|-6-----|-6-----|
G|-10----|-10----|-9-----|-9-----|-7-----|-3-----|-8-----|-5-----|
D|-10----|-10----|-10----|-10----|-8-----|-3-----|-8-----|-7-----|
A|-8-----|-8-----|-10----|-10----|-8-----|-1-----|-6-----|-5-----|
E|-------|-------|-------|-------|-------|-------|-------|-------|

   Eb2     Dm7     C9sus   F
e|-6-----|-5-----|-3-----|-1-----||
B|-6-----|-6-----|-3-----|-1-----||
G|-8-----|-5-----|-3-----|-2-----||
D|-8-----|-7-----|-3-----|-3-----||
A|-6-----|-5-----|-3-----|-3-----||
E|-------|-------|-------|-1-----||
            
Submit corrections


        Open The Eyes Of My Heart lessons Hard to play? Try these video lessons and learn fast Open The Eyes Of My Heart lessons
        
↑ Back to top | Tablatures and chords for acoustic guitar and electric guitar, ukulele, drums are parodies/interpretations of the original songs. You may use it for private study, scholarship, research or language learning purposes only