» » »

Paul Baloche - Hosanna Tabs

Artists:  A B C D E F G H I J K L M N O P Q R S T U V W X Y Z # 

Hosanna Tabs

(ver. 1) Click to play this song!
Paul Baloche
 Rating:
4.4/5 (17 votes)

 Hosanna lessons Tabs too difficult? Try these video lessons and learn fast
 
                
[Part 1]

e|------------------------------------------------------------------------21---|
B|---------------------------------------------------------17------------------|
G|---13h14(x4)---16---18---21---13h14(x4)---16---13---14--------13---14--------|
D|-----------------------------------------------------------------------------|
A|-----------------------------------------------------------------------------|
E|-----------------------------------------------------------------------------|


[Part 2]

e|---12---14---------------12---14----------------------------12---14-------------|
B|---------------14---12---------------14---12---15---14----------------14---12---|
G|--------------------------------------------------------------------------------|
D|--------------------------------------------------------------------------------|
A|--------------------------------------------------------------------------------|
E|--------------------------------------------------------------------------------|


[Ending]

e|-------------12-------------12-------------12-------------|
B|--------12-------------12-------------12------------------|
G|---14-------------14-------------14-------------16---14---|
D|----------------------------------------------------------|
A|----------------------------------------------------------|
E|----------------------------------------------------------|            
Submit corrections


        Hosanna lessons Hard to play? Try these video lessons and learn fast Hosanna lessons
        
↑ Back to top | Tablatures and chords for acoustic guitar and electric guitar, ukulele, drums are parodies/interpretations of the original songs. You may use it for private study, scholarship, research or language learning purposes only