» » »

Paul Baloche - Because Of Your Love Tabs

Artists:  A B C D E F G H I J K L M N O P Q R S T U V W X Y Z # 

Because Of Your Love Tabs

(ver. 1) Click to play this song!
Paul Baloche
 Rating:
4/5 (4 votes)

 Because Of Your Love lessons Tabs too difficult? Try these video lessons and learn fast
 
                ----------------------------------------------------------------------------
----------------------------------------------------------------------------


Tuning: EADGBe

Intro: 
   D
e|-3332233223322333-|
B|-3333333333333333-|
G|------------------| x6
D|------------------|
A|------------------|
E|------------------|

Verse 1: G/B C D
  
e|---------------------------------------------------------------3-2--|
B|-----------------3--------------------------------------3----3----3-|
G|---0---0-----0-------0---0-----0---0-2-0--0---0-----0-------0-0-0---|
D|--0---0-----0---0---0---0-----0----------0---0-----0---0---0--------|
A|-2---3---3/5-------2---3---3/5----------2---3---3/5---2---3---------|
E|---------------3-----------------3----------------------------------|

Verse 2: G/B C D
   
e|---------------------------------------------------------------3-2--|
B|-----------------3--------------------------------------3----3----3-|
G|---0---0-----0-------0---0-----0---0-2-0--0---0-----0-------0-0-0---|
D|--0---0-----0---0---0---0-----0----------0---0-----0---0---0--------|
A|-2---3---3/5-------2---3---3/5----------2---3---3/5---2---3---------|
E|---------------3-----------------3----------------------------------|

Chorus:

  G/B  C     D             G/B  C    D  A/C# C        D
e|------------------|    e|-----------------------------|
B|------------------|    B|-----------------------------|
G|-----555/7-777777-|    G|-----555/7-777666-55555555-7-|
D|-555-555/7-777777-| x5 D|-555-555/7-777777-55555555-7-|
A|-555-333/5-555555-|    A|-555-333/5-555444-33333333-5-|
E|-333--------------|    E|-333-------------------------|

Post-Chorus: same as intro

   D
e|-3332233223322333-|
B|-3333333333333333-|
G|------------------| x3
D|------------------|
A|------------------|
E|------------------|

Verse 3: G/B C D same as Verse 1
  
e|---------------------------------------------------------------3-2--|
B|-----------------3--------------------------------------3----3----3-|
G|---0---0-----0-------0---0-----0---0-2-0--0---0-----0-------0-0-0---|
D|--0---0-----0---0---0---0-----0----------0---0-----0---0---0--------|
A|-2---3---3/5-------2---3---3/5----------2---3---3/5---2---3---------|
E|---------------3-----------------3----------------------------------|

Verse 4: G/B C D same as Verse 2

e|---------------------------------------------------------------3-2--|
B|-----------------3--------------------------------------3----3----3-|
G|---0---0-----0-------0---0-----0---0-2-0--0---0-----0-------0-0-0---|
D|--0---0-----0---0---0---0-----0----------0---0-----0---0---0--------|
A|-2---3---3/5-------2---3---3/5----------2---3---3/5---2---3---------|
E|---------------3-----------------3----------------------------------|

Chorus:

  G/B  C     D             G/B  C    D  A/C# C        D
e|------------------|    e|-----------------------------|
B|------------------|    B|-----------------------------|
G|-----555/7-777777-|    G|-----555/7-777666-55555555-7-|
D|-555-555/7-777777-| x5 D|-555-555/7-777777-55555555-7-|
A|-555-333/5-555555-|    A|-555-333/5-555444-33333333-5-|
E|-333--------------|    E|-333-------------------------|

Solo: Em D/F# G C G/B C D x2

e|---------------------------------------0-3-7---7-10-------7------10---|
B|--------------------------------------3-----8-8----10-8-10-8-8h10--10-|
G|-1/9-7-9-7-9-----------------4---4-4-5--------------------------------|
D|------------9-777-7h9-5-0-5-7-5-7-------------------------------------|
A|----------------------------------------------------------------------|
E|----------------------------------------------------------------------|

Chorus: Just acoustic guitar

Outro: same as intro

   D
e|-3332233223322333-|
B|-3333333333333333-|
G|------------------| x8  end on G
D|------------------|
A|------------------|
E|------------------|

God Bless,

Brandon Canning


| /  slide up
| \  slide down
| h  hammer-on
| p  pull-off
| ~  vibrato
| +  harmonic
| x  Mute note
============================================================================
            
Submit corrections


        Because Of Your Love lessons Hard to play? Try these video lessons and learn fast Because Of Your Love lessons
        
↑ Back to top | Tablatures and chords for acoustic guitar and electric guitar, ukulele, drums are parodies/interpretations of the original songs. You may use it for private study, scholarship, research or language learning purposes only