» » »

Paul Baloche - Angels From The Realm Of Glory Emmanuel Tabs

Artists:  A B C D E F G H I J K L M N O P Q R S T U V W X Y Z # 

Angels From The Realm Of Glory Emmanuel Tabs

(ver. 1) Click to play this song!
Paul Baloche
 Rating:
4.4/5 (17 votes)

 Angels From The Realm Of Glory Emmanuel lessons Tabs too difficult? Try these video lessons and learn fast
 
                [Intro]
e|-----10--|-----10--|----10-|----10--|
B|--8------|--8------|--8----|--8-----|
G|--0------|---------|-------|--------|
D|--0------|---------|-------|--------|
A|---------|---------|-------|--------|
E|---------|---------|-------|--------|

[Verse 1]
e|-------8--7--|------10------|
B|--8----------|--8--------8--|
G|-------------|--------------|
D|-------------|--------------|
A|-------------|--------------|
E|-------------|--------------|

[Verse 2]
e|-----------|-----------------|
B|-----------|-----------------|
G|--------4--|-----------------|
D|--2--------|---4----2---0----|
A|-----------|-----------------|
E|-----------|-----------------|

[Verse 3]
e|-------------|-------------|-----|
B|-------------|-------------|-----|
G|------5---4--|-------------|-----|
D|--5----------|--5-------0--|-(0)-|
A|-------------|-------------|-----|
E|-------------|-------------|-----|

[LeadChorus]
    G     G    Em7       C       G    D7    Em7 
e|--3--|--3--|--3--|-------3--|--3--|--5--|--3--|--3--:|
B|--1--|--0--|--3--|---0h1----|--1--|--3--|--3--|--3--:|
G|--0--|--0--|--0--|----------|--0--|--2--|--0--|--0--:|
D|--0--|--0--|--2--|----------|--0--|--0--|--2--|--x--:|
A|--x--|--x--|--2--|----------|--x--|-----|--2--|--3--:|
E|--3--|--3--|--0--|-3--------|--3--|-----|-----|-----:|x2

    G    D7    Em7    C
e|--3--|--3--|--3--|--3--|
B|--1--|--3--|--3--|--3--|
G|--0--|--2--|--0--|--0--|
D|--0--|--0--|--2--|--x--|
A|--x--|-----|--2--|--3--|
E|--3--|-----|-----|-----|

[Instrumental]
e|--10--12--|--7--5--|--10--12--7--|--7--5--8—7--|
B|----------|--------|-------------|-------------|
G|----------|--------|-------------|-------------|
D|----------|--------|-------------|-------------|
A|----------|--------|-------------|-------------|
E|----------|--------|-------------|-------------|

e|--10--12--|--7--5--|--------|-------------|
B|----------|--------|--------|-------------|
G|----------|--------|--8—-7b-|--7—5s3------|
D|----------|--------|--------|--------4s2--|
A|----------|--------|--------|-------------|
E|----------|--------|--------|-------------|

[Bridge]
           Ending: (1)    (2)     (3)          (4)
e|----|----|----:|-2---|--5--|-----------:|----------|
B|-3--|-3--|-3--:|---3-|-----|-----------:|----------|
G|-2--|-0--|-0--:|-----|-----|-----------:|-22222222-|
D|----|----|----:|-----|-----|-----------:|-00000000-|
A|----|----|----:|-----|-----|--0--2--5--:|----------|
E|----|----|----:|-----|-----|-----------:|----------|
                  
[Ending]
e|--3--|--3--|--3--|--3--|--5--|--3--|--5--|--3--|
B|--1--|--3--|--1--|--3--|--3--|--3--|--3--|--3--|
G|--0--|--0--|--0--|--0--|--0--|--0--|--0--|--0--|
D|--0--|--0--|--0--|--0--|--0--|--0--|--0--|--0--|
A|--x--|--x--|--x--|--x--|--x--|--x--|--x--|--x--|
E|--3--|--3--|--3--|--3--|--3--|--3--|--3--|--3--|            
Submit corrections


        Angels From The Realm Of Glory Emmanuel lessons Hard to play? Try these video lessons and learn fast Angels From The Realm Of Glory Emmanuel lessons
        
↑ Back to top | Tablatures and chords for acoustic guitar and electric guitar, ukulele, drums are parodies/interpretations of the original songs. You may use it for private study, scholarship, research or language learning purposes only