» » »

Patti Smith - So You Want To Be A Rock N Roll Star Tabs

Artists:  A B C D E F G H I J K L M N O P Q R S T U V W X Y Z # 

So You Want To Be A Rock N Roll Star Tabs

(ver. 1) Click to play this song!
Patti Smith
 Rating:
4.3/5 (22 votes)

 So You Want To Be A Rock N Roll Star lessons Tabs too difficult? Try these video lessons and learn fast
 
                [Intro] (also by faint 2nd guitar with organ throughout verses)

e|-----------------------------------|
B|---3-----5---------3--------5------|
G|-----4------6--------4--------6----|
D|-5-----7------7--5-----5--7-----7--| 2x
A|-----------------------------------|
E|-----------------------------------|


[Verse 1]

   G     A
e|----------|
B|----------|
G|----------|
D|-5-5-5-7--| 16x
A|-5-5-5-7--|
E|-3-3-3-5--|


[Chorus]
   D                E                A                D
e|---------------------------------------------------------------------|
B|---------------------------------------------------------------------|
G|-7-7-7-7-7-7-7-7--9-9-9-9-9-9-9-9-------------------7-7-7-7-7-7-7-7--|
D|-7-7-7-7-7-7-7-7--9-9-9-9-9-9-9-9--7-7-7-7-7-7-7-7--7-7-7-7-7-7-7-7--|
A|-5-5-5-5-5-5-5-5--7-7-7-7-7-7-7-7--7-7-7-7-7-7-7-7--5-5-5-5-5-5-5-5--|
E|-----------------------------------5-5-5-5-5-5-5-5-------------------|


[Verse 2]

e|----------|
B|----------|
G|----------|
D|-5-5-5-7--| 8x
A|-5-5-5-7--|
E|-3-3-3-5--|


[Chorus]

e|---------------------------------------------------------------------|
B|---------------------------------------------------------------------|
G|-7-7-7-7-7-7-7-7--9-9-9-9-9-9-9-9-------------------7-7-7-7-7-7-7-7--|
D|-7-7-7-7-7-7-7-7--9-9-9-9-9-9-9-9--7-7-7-7-7-7-7-7--7-7-7-7-7-7-7-7--|
A|-5-5-5-5-5-5-5-5--7-7-7-7-7-7-7-7--7-7-7-7-7-7-7-7--5-5-5-5-5-5-5-5--|
E|-----------------------------------5-5-5-5-5-5-5-5-------------------|


[Bridge] (partial descending D Major scale)
         (with verse rhythm guitar 8x)

e|-10-10-10-10--9-9-9-9--7-7-7-7--10-10-10--7----------------------|
B|--------------------------------------------8-8-7-8--7-8-7-8-10--|
G|-----------------------------------------------------------------|
D|-----------------------------------------------------------------| 2x
A|-----------------------------------------------------------------|
E|-----------------------------------------------------------------|


[Verse 3]

e|----------|
B|----------|
G|----------|
D|-5-5-5-7--| 8x
A|-5-5-5-7--|
E|-3-3-3-5--|


[Chorus]

e|---------------------------------------------------------------------|
B|---------------------------------------------------------------------|
G|-7-7-7-7-7-7-7-7--9-9-9-9-9-9-9-9-------------------7-7-7-7-7-7-7-7--|
D|-7-7-7-7-7-7-7-7--9-9-9-9-9-9-9-9--7-7-7-7-7-7-7-7--7-7-7-7-7-7-7-7--|
A|-5-5-5-5-5-5-5-5--7-7-7-7-7-7-7-7--7-7-7-7-7-7-7-7--5-5-5-5-5-5-5-5--|
E|-----------------------------------5-5-5-5-5-5-5-5-------------------|


[Solo] (2nd guitar: D Major scale, to A minor scale, to D Major scale 2nd octave riffing)
       (with verse rhythm guitar 20x)


[Verse 4]

e|----------|
B|----------|
G|----------|
D|-5-5-5-7--| 42x
A|-5-5-5-7--|
E|-3-3-3-5--|


[Outro]

   G  A
e|-------|
B|-------|
G|-------|
D|-5--7--| x2
A|-5--7--|
E|-3--5--|

   C  D
e|-------|
B|-------|
G|-5--7--|
D|-5--7--| x2
A|-3--5--|
E|-------|

e|-------------------|
B|-------------------|
G|----------5-5-5-7--|
D|-5-5-5-7--5-5-5-7--| x4
A|-5-5-5-7--3-3-3-5--|
E|-3-3-3-5-----------|

e|----------------------------||
B|----------------------------||
G|----------------------------||
D|-7-7-7-7-7-7-7-7-7-7-7-7-7--||
A|-7-7-7-7-7-7-7-7-7-7-7-7-7--||
E|-5-5-5-5-5-5-5-5-5-5-5-5-5--||
            
Submit corrections


        So You Want To Be A Rock N Roll Star lessons Hard to play? Try these video lessons and learn fast So You Want To Be A Rock N Roll Star lessons
        
↑ Back to top | Tablatures and chords for acoustic guitar and electric guitar, ukulele, drums are parodies/interpretations of the original songs. You may use it for private study, scholarship, research or language learning purposes only