Home » P » Pat Benatar »

Pat Benatar - Treat Me Right Bass

Artists:  A B C D E F G H I J K L M N O P Q R S T U V W X Y Z # 

Treat Me Right Bass

(ver. 1) Click to play this song!
Pat Benatar
 Rating:
4/5 (4 votes)
                Treat Me Right by Pat Benatar 
This Is One Of My All Time Fav Songs By Pat It May Not Be 100% But It Sounds Great 
When You Play Along With The Song 

> Means Hit The Note 8 Times
~ Means Vibrato


Intro
G:--------|----------------------------------------------|
D:--------|----------------------------------------------| X4
A:-----3--|--5-5-5---------8—7~--------------------------| 
E:-5------|----------5-6~--------------------------------|

Verse
G:-----------------------------------------------|
D:-----------------------------------------------| X2
A:--5>--1-1-1-1-----------------3----------------|
E:-------------------3-3-----5-------------------|

Pre Chorus
G:--------------------------------------------------------------|
D:--------7--5--------------3--2--------------------------------|
A:--5-5----------8-----------------3---0--0----1--1-------------|
E:---------------------6~--------------------------------3-3--5-|

G:-------------------------------------------------------------|
D:--------7--5--------------1/3--2-----------------------------|
A:--5-5----------8------------------3---0--0----1--1-----------|
E:---------------------6---------------------------------------|

G:-----------------------------------------------|
D:-----------------------------------------------|
A:-----------------------------------------------|
E:--3-3--5-5-5-5-5-------------------------------|

Chorus
G:--------|-----------------------------------------|
D:--------|-----------------------------------------| X2
A:-----3--|--5-5-5---------8-7~---------------------|
E:--5-----|----------5-6~---------------------------|

G:----------------------------------------------------------|
D:-----2~----------7~-----------5~--------------------====--|
A:----------------------------------------1-1---0---3-------|
E:-0~---------5~---------3~---------------------------------|

Verse
G:-----------------------------------------------|
D:-----------------------------------------------| X2
A:--5>--1-1-1-1-----------------3----------------|
E:-------------------3-3-----5-------------------|

Pre Chorus
G:--------------------------------------------------------------|
D:--------7--5--------------3--2--------------------------------|
A:--5-5----------8-----------------3---0--0----1--1-------------|
E:---------------------6-------------------------------3-3--5---|

G:----------------------------------------------------------------|
D:--------7--5--------------1/3--2--------------------------------|
A:--5-5----------8------------------3---0--0----1--1--------------|
E:---------------------6------------------------------------------|

G:-----------------------------------------------|
D:-----------------------------------------------|
A:-----------------------------------------------|
E:--3-3--5-5-5-5-5-------------------------------|

2nd Chorus
G:-----------------------------------------------|
D:-----------------------------------------------|
A:-----3---5-5-5---0----1~----8—7~---------------|
E:-5---------------------------------------------|

G:--------|-----------------------------------------|
D:--------|-----------------------------------------| 
A:-----3--|--5-5-5---------8-7~---------------------|
E:--5-----|----------5-6~---------------------------|

G:----------------------------------------------------------|
D:-----2~----------7~-----------5~--------------------------|
A:----------------------------------------1-1---0---3-------|
E:-0~---------5~---------3~---------------------------------|

G:----------------------------------------------|
D:----------------------------------------------| X4
A:------5-5-5----------8-7~---------------------|
E:--------------5-6~----------------------------|

G:----------------------------------------------------------|
D:-----2~----------7~-----------5~--------------------------|
A:----------------------------------------1----0---3--5-----|
E:-0~---------5~---------3~---------------------------------|


G:-----------------------------------------------|
D:-----------------------------------------------|
A:------3---5------------------------------------|
E:--5--------------5-5-5-5-5---------------------|

Chorus
G:--------|-----------------------------------------|
D:--------|-----------------------------------------| X2
A:-----3--|--5-5-5---------8-7~---------------------|
E:--5-----|----------5-6~---------------------------|


G:----------------------------------------------------------|
D:-----2~----------7~-----------5~--------------------------|
A:----------------------------------------1-1---0---3-------|
E:-0~---------5~---------3~---------------------------------|

Play Until Song Ends
G:----------------------------------------------|
D:----------------------------------------------|
A:------5-5-5----------8-7~---------------------|
E:--------------5-6~----------------------------|
            
Submit corrections

↑ Back to top | Tablatures and chords for acoustic guitar and electric guitar, ukulele, drums are parodies/interpretations of the original songs. You may use it for private study, scholarship, research or language learning purposes only